Oops, an error
Loading. Please wait.

Super Castlevania 4 - Simon Belmonts Theme Stage 1-2 tab

version 1
version 1

Whole song

Interactive

301 views 6 this week
no commentswrite comment
1 2 3 4 5
3 more votes to show rating
add to favorites
×
Save as Personal and add changes to this tab that will be seen only by you. Learn more ›
×
You can save this tab as Personal to edit and correct it or add notes. All changes will be seen only by you. Learn more »
launch autoscroll
font size
0
reset
how to read this tab
guitar tuner
edit
Autoscroll
slow
fast
+/-
esc
set tempo
stop
#----------------------------------PLEASE NOTE---------------------------------#
#This file is the author's own work and represents their interpretation of the #
#song. You may only use this file for private study, scholarship, or research. #
#------------------------------------------------------------------------------##

Super Castlevania 4 (SNES) - Simon Belmont's Theme (stage 1-2, 1-3)

Note: Organ parts contain two to three voicings on one staff at times

Gtr I (B E A D G B E) - 'Organ'
Gtr II (B E A D G B E) - 'Flute'
Gtr III (B E A D G B E) - 'Oboe'
Gtr IV (B E A D G B E) - 'Rock Organ'
Gtr V (B E A D G B E) - 'French Horn'

  Gtr I
   W           W           W           W
|-----------|-----------|-----------|-------|
|-----------|-----------|-----------|-------|
|-12--------|-----------|-----------|-------|
|-----------|-12--------|-13--------|-10----|
|-10--------|-----------|-----------|-------|
|-----------|-10--------|-11--------|--8----|
|-----------|-----------|-----------|-------|
|
| Gtr I
|  W           W           W           W
|-----------|-----------|-----------|-------|
|-----------|-----------|-----------|-------|
|-----------|-----------|-----------|-------|
|--5--------|-----------|-----------|-------|
|-----------|--5--------|--6--------|--3----|
|--3--------|-----------|-----------|-------|
|-----------|--3--------|--4--------|--1----|


   S  S  S  S  S  S  S  S  S  S  S  S  S  S  S  S     S   S  S  S  S  S  S  S  S  S  S  S  S  S  S  S
|-10----10-------10----10----10-------10-------10-|--10-----10-------10----10----10-------10-------10-|
|----11----10-11----------13-------11-------13----|------11----10-11----------13-------11-------13----|
|-------------------12----------12-------12-------|---------------------12----------12-------12-------|
|-------------------------------------------------|---------------------------------------------------|
|-------------------------------------------------|---------------------------------------------------|
|-------------------------------------------------|---------------------------------------------------|
|-------------------------------------------------|---------------------------------------------------|
|
| Gtr II
|  S  S  S  S  S  S  S  S  S  S  S  S  S  S  S  S     S   S  S  S  S  S  S  S  S  S  S  S  S  S  S  S
|-22----22-------22----22-20-22-------22----20-22-|--22-----22-------22----22-20-22-------22----20-22-|
|----23----22-23-------------------23-------------|------23----22-23-------------------23-------------|
|-------------------24----------24-------24-------|---------------------24----------24-------24-------|
|-------------------------------------------------|---------------------------------------------------|
|-------------------------------------------------|---------------------------------------------------|
|-------------------------------------------------|---------------------------------------------------|
|-------------------------------------------------|---------------------------------------------------|
|
| Gtr III
|  W                                                 +W
|-------------------------------------------------|---------------------------------------------------|
|-15----------------------------------------------|-(15)----------------------------------------------|
|-------------------------------------------------|---------------------------------------------------|
|-10----------------------------------------------|-(10)----------------------------------------------|
|-12----------------------------------------------|-(12)----------------------------------------------|
|--8----------------------------------------------|--(8)----------------------------------------------|
|-------------------------------------------------|---------------------------------------------------|


   S  S  S  S  S  S  S  S  S  S  S  S  S  S  S  S    S  S  S  S  S  S  S  S  S  S  S  S  S  S  S  S
|-10----10-------10----10----10-------10-------10-|-10----10-------10----10----10-------10-------10----|
|----11----10-11----------13-------11-------13----|----11----10-11----------13-------11-------13-------|
|-------------------12----------12-------12-------|-------------------12----------12-------12----------|
|-------------------------------------------------|----------------------------------------------------|
|-------------------------------------------------|----------------------------------------------------|
|-------------------------------------------------|----------------------------------------------------|
|-------------------------------------------------|----------------------------------------------------|
|
|  S  S  S  S  S  S  S  S  S  S  S  S  S  S  S  S    S  S  S  S  S  S  S  S  S  S  S  S  S  S  S  S
|-22----22-------22----22-20-22-------22----20-22-|-22----22-------22----22-20-22-------22----20-22----|
|----23----22-23-------------------23-------------|----23----22-23-------------------23----------------|
|-------------------24----------24-------24-------|-------------------24----------24-------24----------|
|-------------------------------------------------|----------------------------------------------------|
|-------------------------------------------------|----------------------------------------------------|
|-------------------------------------------------|----------------------------------------------------|
|-------------------------------------------------|----------------------------------------------------|
|
|  W                                                 W
|-------------------------------------------------|----------------------------------------------------|
|-15----------------------------------------------|-15-------------------------------------------------|
|-------------------------------------------------|-10-------------------------------------------------|
|-13----------------------------------------------|-10-------------------------------------------------|
|-13----------------------------------------------|--8-------------------------------------------------|
|-11----------------------------------------------|----------------------------------------------------|
|-------------------------------------------------|----------------------------------------------------|


     Q   E.   S  +Q    S  S  E    +Q      S  S  E  +S   S  E   S   S  E
||--15--17------------17-18-20-|-(20)----18-17-18-(18)-15---------15-15----|
||-----------18-(18)-----------|--------------------------15--18-----------|
||o-12--14------------14-15-17-|-(17)----15-14-15-(15)-12---------12-12----|
||-----------15-(15)-----------|--------------------------12--15-----------|
||o-10--12------------12-13-15-|-(15)----13-12-13-(13)-10---------10-10----|
||-----------13-(13)-----------|--------------------------10--13-----------|
||-----------------------------|-------------------------------------------|
|
|   Gtr IV
|    Q   E.   S  +Q    S  S  E    +E.  S  S  S  E  +S   S  E   E.        S
||-----------------------------|-------------------------------------------|
||-----------------------------|-------------------------------------------|
||o-12--14------------14-15-17-|-(17)----15-14----------------14-----------|
||-----------15-(15)-----------|------17-------17-(17)----17------------13-|
||o-10--12------------12-13-15-|-(15)----13-12---------17-----12-----------|
||-----------13-(13)-----------|------15-------15-(15)----15------------11-|
||-----------------------------|-----------------------15------------------|


   +Q    E.  S  +Q         E.  S    +Q    E   S  S  +Q      Q
|-(15)--17----------------17--18-|-(18)--20--22-20-(20)----17--------|
|-----------18-(18)--------------|-----------------------------------|
|-(12)--14----------------14--15-|-(15)--17--19-17-(17)----14--------|
|-----------15-(15)--------------|-----------------------------------|
|-(10)--12----------------12--13-|-(13)--15--17-15-(15)----12--------|
|-----------13-(13)--------------|-----------------------------------|
|--------------------------------|-----------------------------------|
|
|  +Q    E.  E       S  E  E.  S    +Q    E.     S  +E   E  S  S  E
|--------------------------------|-----------------------------------|
|--------------------------------|-----------------------------------|
|--------------------------------|-----------------------------------|
|-(13)------15---------15--------|-------13----------------16----16--|
|-------17----------15----17--15-|-(15)---------17-(17)-17----17-----|
|-(11)------13---------13--------|-------11----------------14----14--|
|-------15----------13----15--13-|-(13)---------15-(15)-15----15-----|


   Q   E.  S  +Q    S  S  E    +Q      S  S  E  +S   S  S  S  S   S  E
|-15--17-----------17-18-20-|-(20)----18-17-18-(18)-17--------------------|
|---------18-(18)--18-19-17-|-(17)---------------------20----20--20-20----|
|-12--14-----------14-15-17-|-(17)----15-14-15-(15)-14----19--------------|
|---------15-(15)--15-16-14-|-(14)---------------------17----17--17-17----|
|-10--12-----------12-13-15-|-(15)----13-12-13-(13)-12----17--------------|
|---------13-(13)-----------|--------------------------15----15--15-15----|
|---------------------------|-----------------------------15--------------|
|
|  Q   E.  S  +Q    S  S  E    +E.  S  S  S  E  +S   S  E     E.        S
|---------------------------|---------------------------------------------|
|---------------------------|---------------------------------------------|
|-12--14-----------14-15-17-|-(17)----15-14------------------14-----------|
|---------15-(15)-----------|------17-------17-(17)----17--------------13-|
|-10--12-----------12-13-15-|-(15)----13-12---------17-------12-----------|
|---------13-(13)-----------|------15-------15-(15)----15--------------11-|
|---------------------------|-----------------------15--------------------|


   +Q    E.  S  +Q         E.  S    +Q    E   S  S  +Q      Q
|-------17----------------17--18-|-(18)--20--22-20-(20)----17-------|
|-(20)------18-(18)--------------|----------------------------------|
|-------14----------------14--15-|-(15)--17--19-17-(17)----14-------|
|-(17)------15-(15)--------------|----------------------------------|
|-------12----------------12--13-|-(13)--15--17-15-(15)----12-------|
|-(15)------13-(13)--------------|----------------------------------|
|--------------------------------|----------------------------------|
|
|  +Q    E.  E       S  E  E.  S    +Q    E.     S  +E   E  S  S  E
|--------------------------------|----------------------------------|
|--------------------------------|----------------------------------|
|--------------------------------|----------------------------------|
|-(13)------15---------15--------|-------13----------------16----16-|
|-------17----------15----17--15-|-(15)---------17-(17)-17----17----|
|-(11)------13---------13--------|-------11----------------14----14-|
|-------15----------13----15--13-|-(13)---------15-(15)-15----15----|


  Gtrs II, III
   S  S  E  S  S  E  S  S  S  S  E.  S    S  S  E  S  S  E  S  S  S  S  E.  S
|-10-10-10-10-10-10-10-10-10-10-10--10-|-10-10-10-10-10-10-10-10-10-10-10--10-|
|--------------------------------------|--------------------------------------|
|--7--7--7--7--7--7--7--7--7--7--7---7-|--7--7--7--7--7--7--7--7--7--7--7---7-|
|--------------------------------------|--------------------------------------|
|--------------------------------------|--------------------------------------|
|--------------------------------------|--------------------------------------|
|--------------------------------------|--------------------------------------|
|
|  S  S  E  S  S  E  S  S  S  S  E.  S    S  S  E  S  S  E  S  S  S  S  E.  S
|--------------------------------------|--------------------------------------|
|--8--8--8--8--8--8--8--8--8--8--8---8-|--8--8--8--8--8--8--8--8--8--8--8---8-|
|--------------------------------------|--------------------------------------|
|--5--5--5--5--5--5--5--5--5--5--5---5-|--5--5--5--5--5--5--5--5--5--5--5---5-|
|--------------------------------------|--------------------------------------|
|--------------------------------------|--------------------------------------|
|--------------------------------------|--------------------------------------|


   S  S  E  S  S  E  S  S  S  S  E.  S    S  S  E  S  S  E  S  S  S  S  E.  S
|-10-10-10-10-10-10-10-10-10-10-10--10-|-10-10-10-10-10-10-10-10-10-10-10--10----|
|--------------------------------------|-----------------------------------------|
|--7--7--7--7--7--7--7--7--7--7--7---7-|--7--7--7--7--7--7--7--7--7--7--7---7----|
|--------------------------------------|-----------------------------------------|
|--------------------------------------|-----------------------------------------|
|--------------------------------------|-----------------------------------------|
|--------------------------------------|-----------------------------------------|
|
|  S  S  E  S  S  E  S  S  S  S  E.  S    S  S  E  S  S  E  S  S  S  S  E.  S
|--------------------------------------|-----------------------------------------|
|--8--8--8--8--8--8--8--8--8--8--8---8-|--8--8--8--8--8--8--8--8--8--8--8---8----|
|--------------------------------------|-----------------------------------------|
|--5--5--5--5--5--5--5--5--5--5--5---5-|--5--5--5--5--5--5--5--5--5--5--5---5----|
|--------------------------------------|-----------------------------------------|
|--------------------------------------|-----------------------------------------|
|--------------------------------------|-----------------------------------------|


   S  S  E  S  S  E  S  S  S  S  E.  S    S  S  E  S  S  E  S  S  S  S  E.  S
|-10-10-10-10-10-10-10-10-10-10-10--10-|-10-10-10-10-10-10-10-10-10-10-10--10-|
|--------------------------------------|--------------------------------------|
|--7--7--7--7--7--7--7--7--7--7--7---7-|--7--7--7--7--7--7--7--7--7--7--7---7-|
|--------------------------------------|--------------------------------------|
|--------------------------------------|--------------------------------------|
|--------------------------------------|--------------------------------------|
|--------------------------------------|--------------------------------------|
|
|  S  S  E  S  S  E  S  S  S  S  E.  S    S  S  E  S  S  E  S  S  S  S  E.  S
|--------------------------------------|--------------------------------------|
|--8--8--8--8--8--8--8--8--8--8--8---8-|--8--8--8--8--8--8--8--8--8--8--8---8-|
|--------------------------------------|--------------------------------------|
|--5--5--5--5--5--5--5--5--5--5--5---5-|--5--5--5--5--5--5--5--5--5--5--5---5-|
|--------------------------------------|--------------------------------------|
|--------------------------------------|--------------------------------------|
|--------------------------------------|--------------------------------------|


                                                                                  2/4
   S  S  E  S  S  E  S  S  S  S  E.  S    S  S  E  S  S  E  S  S  S  S  +S   S E      H
|-10-10-10-10-10-10-10-10-10-10-10--10-|-10-10-10-10-10-10-10-10-10-10-(10)-10---|-------|
|--------------------------------------|-----------------------------------------|-------|
|--7--7--7--7--7--7--7--7--7--7--7---7-|--7--7--7--7--7--7--7--7--7--7--(7)--7---|-------|
|--------------------------------------|-----------------------------------------|-------|
|--------------------------------------|-----------------------------------------|-------|
|--------------------------------------|-----------------------------------------|-------|
|--------------------------------------|-----------------------------------------|-------|
|
|  S  S  E  S  S  E  S  S  S  S  E.  S    S  S  E  S  S  E  S  S  S  S  +S   S E    H
|--------------------------------------|-----------------------------------------|-------|
|--8--8--8--8--8--8--8--8--8--8--8---8-|--8--8--8--8--8--8--8--8--8--8--(8)--8---|-------|
|--------------------------------------|-----------------------------------------|-------|
|--5--5--5--5--5--5--5--5--5--5--5---5-|--5--5--5--5--5--5--5--5--5--5--(5)--5---|-------|
|--------------------------------------|-----------------------------------------|-------|
|--------------------------------------|-----------------------------------------|-------|
|--------------------------------------|-----------------------------------------|-------|


  Gtr II
                                                    ~~
   Q   S  S   Q    E  S   S  E       +Q    S  E  S  H
|-----------------15-----15-16----|-(16)--16-------15----|
|-15--15-16--18------18-----------|----------16-18-------|
|---------------------------------|----------------------|
|---------------------------------|----------------------|
|---------------------------------|----------------------|
|---------------------------------|----------------------|
|---------------------------------|----------------------|
|
| Gtr III
|  Q   S  E.    Q     E.        S    +H             H
|---------------------------------|----------------------|
|---------------------------------|----------------------|
|---------------------------------|----------------------|
|---------5-----3---------------6-|--(6)------------5----|
|---------------------------------|----------------------|
|---------3-----1---------------4-|--(4)------------3----|
|---------------------------------|----------------------|
|
| Gtr IV
|  Q   S  E.    Q     E.        S    +H             H
|--------10-----8--------------11-|-(11)-----------10----|
|---------------------------------|----------------------|
|---------7-----5---------------8-|--(8)------------7----|
|---------------------------------|----------------------|
|---------------------------------|----------------------|
|---------------------------------|----------------------|
|---------------------------------|----------------------|


                       ~~                     ~~~~
   Q   E   S  S  +Q    Q     Q    E   S   S  +H
|---------15--------------|----------15-----------------------------|
|-16--18-----18-(18)------|-16---18------18-(18)--------------------|
|---------------------17--|-----------------------------------------|
|-------------------------|-----------------------------------------|
|-------------------------|-----------------------------------------|
|-------------------------|-----------------------------------------|
|-------------------------|-----------------------------------------|
|
|                           Gtr V
|  Q   E.     S  +H          H                S  S S S  S  S  S S
|-------------------------|-------------------------------------8---|
|-------------------------|--------------------------8----10-11-----|
|-------------------------|--5-------------------7-8---10-----------|
|-------------3--(3)------|-----------------------------------------|
|------6------------------|--3--------------------------------------|
|-------------1--(1)------|-----------------------------------------|
|------4------------------|-----------------------------------------|
|
|  Q   E.     S  +H          Q.      +S   S  +H
|-------------8--(8)------|-----------------------------------------|
|-----11------------------|-----------------------------------------|
|-------------5--(5)------|-12------(12)-14-(14)--------------------|
|------8------------------|-----------------------------------------|
|-------------------------|-10------(10)-12-(12)--------------------|
|-------------------------|-----------------------------------------|
|-------------------------|-----------------------------------------|


                                                            ~~
   Q   S  S   Q     E  S  S   E    +Q             S   E  S  H
|------------------15----15--16-|-(16)-----------16--------15-------------|
|-----15-16--18-------18--------|--------------------16-18----------------|
|-------------------------------|-----------------------------------------|
|-------------------------------|-----------------------------------------|
|-------------------------------|-----------------------------------------|
|-------------------------------|-----------------------------------------|
|-------------------------------|-----------------------------------------|
|
|  Q   S  S   Q     E  S  E.        S   S  S  S  +Q.           S  E  S  E
|------------10----11-10-11-----|--13--13----15-(15)----------13----------|
|-11--11-13---------------------|---------13------------------------13-15-|
|-------------------------------|--------------------------------15-------|
|-------------------------------|-----------------------------------------|
|-------------------------------|-----------------------------------------|
|-------------------------------|-----------------------------------------|
|-------------------------------|-----------------------------------------|
|
|  Q   S  E.     H                  Q             Q         H
|-------------------------------|-----------------------------------------|
|-------------------------------|-----------------------------------------|
|--------12-----10--------------|-----------------------------------------|
|-------------------------------|----------------13--------12-------------|
|--------10------8--------------|-----------------------------------------|
|-------------------------------|----------------11--------10-------------|
|-------------------------------|-----------------------------------------|


                 ~~~~                        ~~~~
   Q   E  S  S  +Q    Q     Q    E   S   S  +H
|--------15-17-(17)------|------17--18--20-(20)----|
|-16--18-------------18--|-20----------------------|
|------------------------|-------------------------|
|------------------------|-------------------------|
|------------------------|-------------------------|
|------------------------|-------------------------|
|------------------------|-------------------------|
|
|  Q   E  S  S  +Q    Q     Q    E   S   S  +H
|-----------13-(13)------|------13--15--17-(17)----|
|-13--15-16----------13--|-16----------------------|
|------------------------|-------------------------|
|------------------------|-------------------------|
|------------------------|-------------------------|
|------------------------|-------------------------|
|------------------------|-------------------------|
|
|  H             H          Q.      +S   S  +H
|------------------------|-------------------------|
|------------------------|-------------------------|
|---------------10-------|-12------(12)-14-(14)----|
|-13---------------------|-------------------------|
|----------------8-------|-10------(10)-12-(12)----|
|-11---------------------|-------------------------|
|------------------------|-------------------------|


  Gtr I
   Q   E   S  S  +Q    S  S   S   S    +Q    E   S   S  +H
|-23--22-----20-(20)--20-22--23--25-|-(25)--22------20-(20)----|
|---------23------------------------|-----------23-------------|
|-20--19-----17-(17)--17-19--20--22-|-(22)--19------17-(17)----|
|---------20------------------------|-----------20-------------|
|-18--17-----15-(15)--15-17--18--20-|-(20)--17------15-(15)----|
|---------18------------------------|-----------18-------------|
|-----------------------------------|--------------------------|
|
| Gtr IV
|  Q   E.     S  +Q.         +S   S    +Q.      +S   S  +H
|-----------------------------------|--------------------------|
|-----------------------------------|---------------13-(13)----|
|-13--15-----10-(10)--------(10)-12-|-(12)-----(12)------------|
|-----------------------------------|---------------10-(10)----|
|-11--13------8--(8)---------(8)-10-|-(10)-----(10)------------|
|-----------------------------------|--------------------------|
|-----------------------------------|--------------------------|
|
| Gtr V
|  Q   E   S  S  +Q    S  S   S   S     H                H
|-----------------------------------|--------------------------|
|-----------------------------------|-------------------13-----|
|-20--19-----17-(17)--17-19--20--22-|--12----------------------|
|---------20------------------------|-------------------10-----|
|-18--17-----15-(15)--15-17--18--20-|--10----------------------|
|---------18------------------------|--------------------------|
|-----------------------------------|--------------------------|


   Q   E  S  S  +Q    S  S  S  S    +Q    E  S  S  +H
|-23--22----20-(20)--20-22-23-25-|-(25)--22----20-(20)----|
|--------23----------------------|----------23------------|
|-20--19----17-(17)--17-19-20-22-|-(22)--19----17-(17)----|
|--------20----------------------|----------20------------|
|-18--17----15-(15)--15-17-18-20-|-(20)--17----15-(15)----|
|--------18----------------------|----------18------------|
|--------------------------------|------------------------|
|
|  Q   E  S  S  +Q    S  S  S  S    +Q    E  S  S  +H
|--------------------------------|------------------------|
|--------------------------------|------------------------|
|-13--------12-(12)-----15-17-15-|-(15)--------12-(12)----|
|-----15-12----------15----------|-------15-15------------|
|-11--------10-(10)-----13-15-13-|-(13)--------10-(10)----|
|-----13-10----------13----------|-------13-13------------|
|--------------------------------|------------------------|
|
|  Q   E  S  S  +Q    S  S  S  S    +Q    E  S  S  +H
|--------------------------------|------------------------|
|--------------------------------|------------------------|
|-20--19----17-(17)--17-19-20-22-|-(22)--19----17-(17)----|
|--------20----------------------|----------20------------|
|-18--17----15-(15)--15-17-18-20-|-(20)--17----15-(15)----|
|--------18----------------------|----------18------------|
|--------------------------------|------------------------|


  Gtr I
   S  S  S  S  S  S  S  S  S  S  S  S  S  S  S  S     S   S  S  S  S  S  S  S  S  S  S  S  S  S  S  S
|-22----22-------22----22-20-22-------22-------22-|-22-----22-------22----22-20-22-------22-------22|
|----23----22-23----20----------22-23----20-22----|-----23----22-23----20----------22-23----20-22---|
|-------------------------------------------------|-------------------------------------------------|
|-------------------------------------------------|-------------------------------------------------|
|-------------------------------------------------|-------------------------------------------------|
|-------------------------------------------------|-------------------------------------------------|
|-------------------------------------------------|-------------------------------------------------|
|
| Gtr II
|  S  S  S  S  S  S  S  S  S  S  S  S  S  S  S  S     S   S  S  S  S  S  S  S  S  S  S  S  S  S  S  S
|----22----22-------22----22-20-22-------22-------|-22--22----22-------22----22-20-22-------22------|
|-------23----22-23----20----------22-23----20-22-|--------23----22-23----20----------22-23----20-22|
|-------------------------------------------------|-------------------------------------------------|
|-17----------------------------------------------|-------------------------------------------------|
|-------------------------------------------------|-------------------------------------------------|
|-------------------------------------------------|-------------------------------------------------|
|-------------------------------------------------|-------------------------------------------------|
|
| Gtrs III, V
|  W                                                 +W
|-------------------------------------------------|-------------------------------------------------|
|-------------------------------------------------|-------------------------------------------------|
|-12----------------------------------------------|(12)---------------------------------------------|
|-------------------------------------------------|-------------------------------------------------|
|-10----------------------------------------------|(10)---------------------------------------------|
|-------------------------------------------------|-------------------------------------------------|
|-------------------------------------------------|-------------------------------------------------|


   S  S  S  S  S  S  S  S  S  S  S  S  S  S  S  S     S   S  S  S  S  S  S  S  S  S  S  S  S  S  S  S
|-22----22-------22----22-20-22-------22-------22-|--22-----22----22----22----22-20-22----20----20-22----|
|----23----22-23----20----------22-23----20-22----|------------------23----22----------22----23----------|
|-------------------------------------------------|------22----20----------------------------------------|
|-------------------------------------------------|------------------------------------------------------|
|-------------------------------------------------|------------------------------------------------------|
|-------------------------------------------------|------------------------------------------------------|
|-------------------------------------------------|------------------------------------------------------|
|
|  S  S  S  S  S  S  S  S  S  S  S  S  S  S  S  S     S   S  S  S  S  S  S  S  S  S  S  S  S  S  S  S
|-22-22----22-------22----22-20-22-------22-------|--22--22----22----22----22----22-20-22----20----20----|
|-------23----22-23----20----------22-23----20-22-|---------------------23----22----------22----23-------|
|-------------------------------------------------|---------22----20-------------------------------------|
|-------------------------------------------------|------------------------------------------------------|
|-------------------------------------------------|------------------------------------------------------|
|-------------------------------------------------|------------------------------------------------------|
|-------------------------------------------------|------------------------------------------------------|
|
|  W                                                 +W
|-------------------------------------------------|------------------------------------------------------|
|-------------------------------------------------|------------------------------------------------------|
|-10----------------------------------------------|-(10)-------------------------------------------------|
|-------------------------------------------------|------------------------------------------------------|
|--8----------------------------------------------|--(8)-------------------------------------------------|
|-------------------------------------------------|------------------------------------------------------|
|-------------------------------------------------|------------------------------------------------------|


   S  S  S  S  S  S  S  S  S   S  S  S  S  S  S  S     S   S  S  S  S  S  S  S  S  S  S  S  S  S  S  S
|-22----22-------22----22-20--22-------22-------22-|--22-----22-------22----22-20-22-------22-------22-|
|----23----22-23----20-----------22-23----20-22----|------23----22-23----20----------22-23----20-22----|
|--------------------------------------------------|---------------------------------------------------|
|--------------------------------------------------|---------------------------------------------------|
|--------------------------------------------------|---------------------------------------------------|
|--------------------------------------------------|---------------------------------------------------|
|--------------------------------------------------|---------------------------------------------------|
|
|  S  S  S  S  S  S  S  S  S   S  S  S  S  S  S  S     S   S  S  S  S  S  S  S  S  S  S  S  S  S  S  S
|-22-22----22-------22----22--20-22-------22-------|--22--22----22-------22----22-20-22-------22-------|
|-------23----22-23----20-----------22-23----20-22-|---------23----22-23----20----------22-23----20-22-|
|--------------------------------------------------|---------------------------------------------------|
|--------------------------------------------------|---------------------------------------------------|
|--------------------------------------------------|---------------------------------------------------|
|--------------------------------------------------|---------------------------------------------------|
|--------------------------------------------------|---------------------------------------------------|
|
|  H                      +S   S  S  S  E     S  S    +H.                                   E     S  S
|------------------------------------8-10-----8-10-|-(10)-----------------------------------8----10-11-|
|--8----------------------(8)--8-11----------------|---------------------------------------------------|
|--------------------------------------------------|---------------------------------------------------|
|--------------------------------------------------|---------------------------------------------------|
|--------------------------------------------------|---------------------------------------------------|
|--------------------------------------------------|---------------------------------------------------|
|--------------------------------------------------|---------------------------------------------------|


    S   S  S  S  S  S  S  S  S  S  S  S  S   S  S  S     S   S  S  S  S  S   S   S   S   S  S  S  S  S  S  S
|--22-----22-------22----22-20-22-------22--------22-|-22-----22----22-----22------22--20-22----20----20-22--|
|------23----22-23----20----------22-23-----20-22----|-----------------23------22------------22----23--------|
|----------------------------------------------------|-----22----20------------------------------------------|
|----------------------------------------------------|-------------------------------------------------------|
|----------------------------------------------------|-------------------------------------------------------|
|----------------------------------------------------|-------------------------------------------------------|
|----------------------------------------------------|-------------------------------------------------------|
|
|   S   S  S  S  S  S  S  S  S  S  S  S  S   S  S  S     S   S  S  S  S  S   S   S   S   S  S  S  S  S  S  S
|--22--22----22-------22----22-20-22--------22-------|-22--22----22----22------22------22-20-22----20----20--|
|---------23----22-23----20----------22-23-----20-22-|---------------------23------22-----------22----23-----|
|----------------------------------------------------|--------22----20---------------------------------------|
|----------------------------------------------------|-------------------------------------------------------|
|----------------------------------------------------|-------------------------------------------------------|
|----------------------------------------------------|-------------------------------------------------------|
|----------------------------------------------------|-------------------------------------------------------|
|
|  +H.                                   E.        S    +Q.                 +S   S  +Q            Q
|-(11)----------------------------------13-----------|-------------------------13-(13)----------17-----------|
|-------------------------------------------------13-|(13)----------------(13)-------------------------------|
|----------------------------------------------------|-------------------------------------------------------|
|----------------------------------------------------|-------------------------------------------------------|
|----------------------------------------------------|-------------------------------------------------------|
|----------------------------------------------------|-------------------------------------------------------|
|----------------------------------------------------|-------------------------------------------------------|

   Q   E.  S  +Q    S  S  E    +Q      S  S  E  +S   S  E  S   S  E
|-15--17-----------17-18-20-|-(20)----18-17-18-(18)-15--------15-15----|
|---------18-(18)-----------|--------------------------15-18-----------|
|-12--14-----------14-15-17-|-(17)----15-14-15-(15)-12--------12-12----|
|---------15-(15)-----------|--------------------------12-15-----------|
|-10--12-----------12-13-15-|-(15)----13-12-13-(13)-10--------10-10----|
|---------13-(13)-----------|--------------------------10-13-----------|
|---------------------------|------------------------------------------|
|
|  Q   E.  S  +Q    S  S  E    +E.  S  S  S  E  +S   S  E  E.        S
|---------------------------|------------------------------------------|
|---------------------------|------------------------------------------|
|-12--14-----------14-15-17-|-(17)----15-14---------------14-----------|
|---------15-(15)-----------|------17-------17-(17)----17-----------13-|
|-10--12-----------12-13-15-|-(15)----13-12---------17----12-----------|
|---------13-(13)-----------|------15-------15-(15)----15-----------11-|
|---------------------------|-----------------------15-----------------|


   +Q    E.  S  +Q         E.  S    +Q    E   S  S  +Q      Q
|-(15)--17----------------17--18-|-(18)--20--22-20-(20)----17--------|
|-----------18-(18)--------------|-----------------------------------|
|-(12)--14----------------14--15-|-(15)--17--19-17-(17)----14--------|
|-----------15-(15)--------------|-----------------------------------|
|-(10)--12----------------12--13-|-(13)--15--17-15-(15)----12--------|
|-----------13-(13)--------------|-----------------------------------|
|--------------------------------|-----------------------------------|
|
|  +Q    E.  E       S  E  E.  S    +Q    E.     S  +E   E  S  S  E
|--------------------------------|-----------------------------------|
|--------------------------------|-----------------------------------|
|--------------------------------|-----------------------------------|
|-(13)------15---------15--------|-------13----------------16----16--|
|-------17----------15----17--15-|-(15)---------17-(17)-17----17-----|
|-(11)------13---------13--------|-------11----------------14----14--|
|-------15----------13----15--13-|-(13)---------15-(15)-15----15-----|


   Q   E.  S  +Q    S  S  E    +Q      S  S  E  +S   S  S  S  S   S  E
|-15--17-----------17-18-20-|-(20)----18-17-18-(18)-17--------------------|
|---------18-(18)--18-19-17-|-(17)---------------------20----20--20-20----|
|-12--14-----------14-15-17-|-(17)----15-14-15-(15)-14----19--------------|
|---------15-(15)--15-16-14-|-(14)---------------------17----17--17-17----|
|-10--12-----------12-13-15-|-(15)----13-12-13-(13)-12----17--------------|
|---------13-(13)-----------|--------------------------15----15--15-15----|
|---------------------------|-----------------------------15--------------|
|
|  Q   E.  S  +Q    S  S  E    +E.  S  S  S  E  +S   S  E     E.        S
|---------------------------|---------------------------------------------|
|---------------------------|---------------------------------------------|
|-12--14-----------14-15-17-|-(17)----15-14------------------14-----------|
|---------15-(15)-----------|------17-------17-(17)----17--------------13-|
|-10--12-----------12-13-15-|-(15)----13-12---------17-------12-----------|
|---------13-(13)-----------|------15-------15-(15)----15--------------11-|
|---------------------------|-----------------------15--------------------|


   +Q    E.  S  +Q         E.  S    +Q    E   S  S  +Q      Q
|-------17----------------17--18-|-(18)--20--22-20-(20)----17--------||
|-(20)------18-(18)--------------|-----------------------------------||
|-------14----------------14--15-|-(15)--17--19-17-(17)----14-------o||
|-(17)------15-(15)--------------|-----------------------------------||
|-------12----------------12--13-|-(13)--15--17-15-(15)----12-------o||
|-(15)------13-(13)--------------|-----------------------------------||
|--------------------------------|-----------------------------------||
|
|  +Q    E.  E       S  E  E.  S    +Q    E.     S  +E   E  S  S  E
|--------------------------------|-----------------------------------||
|--------------------------------|-----------------------------------||
|--------------------------------|----------------------------------o||
|-(13)------15---------15--------|-------13----------------16----16--||
|-------17----------15----17--15-|-(15)---------17-(17)-17----17----o||
|-(11)------13---------13--------|-------11----------------14----14--||
|-------15----------13----15--13-|-(13)---------15-(15)-15----15-----||



************************************

| (n)  Ghost note  

************************************

            
            
Suggest correction
Creating personal tab
Creating personal tab
You can edit any tab online and save it as your Personal.

You can edit, replace or remove any tab part or add personal notes – all changes will be seen only by you.

Personal tabs can be accessed anytime from any device, even offline.
Learn more »
Give kudos to tab author, rate the tab!
1 2 3 4 5
comments
print report bad tab
guest
You may want to rate the tab now too:
select rating
Wanna post a correction for this tab? Suggest correction