Oops, an error
Loading. Please wait.

Super Castlevania 4 - The Forest Of Monsters Stage 2 tab

version 1
version 1

Whole song

Interactive

79 views 1 this week
no commentswrite comment
1 2 3 4 5
3 more votes to show rating
add to favorites
×
Save as Personal and add changes to this tab that will be seen only by you. Learn more ›
×
You can save this tab as Personal to edit and correct it or add notes. All changes will be seen only by you. Learn more »
launch autoscroll
font size
0
reset
how to read this tab
guitar tuner
edit
Autoscroll
slow
fast
+/-
esc
set tempo
stop
Author
Difficulty
#----------------------------------PLEASE NOTE---------------------------------#
#This file is the author's own work and represents their interpretation of the #
#song. You may only use this file for private study, scholarship, or research. #
#------------------------------------------------------------------------------##

Super Castlevania 4 (SNES) - The Forest of Monsters theme (Stage 2)

Gtr I (E A D G B E) - 'Echoes'
Gtr II (E A D G B E) - 'Church Organ'
Gtr III (E A D G B E) - 'Trumpet'
Gtr IV (E A D G B E) - 'Oboe'
Gtr V (E A D G B E) - 'Strings'
Gtr VI (E A D G B E) - 'Piano'

  Q=200
  Gtr I
  W            W          +W           +W
|----------||-----------|------------|------------|
|----------||o----------|------------|------------|
|----------||-----------|------------|------------|
|----------||-----------|------------|------------|
|----------||o-8--------|-(8)--------|-(8)--------|
|----------||-----------|------------|------------|


  +H     H      W          +W           +W
|-------------|----------|------------|--------|
|-------------|----------|------------|--------|
|-------------|----------|------------|--------|
|--------8----|-7--------|-(7)--------|-(7)----|
|-(8)---------|----------|------------|--------|
|-------------|----------|------------|--------|


  +H      H       W           +W            +W
|--------------|-----------|-------------|-------------|
|--------------|-----------|-------------|-------------|
|--------------|-----------|-------------|-------------|
|-(7)----10----|-----------|-------------|-------------|
|--------------|-11--------|-(11)--------|-(11)--------|
|--------------|-----------|-------------|-------------|


   +W           W          +W           +W           +W
|-------------|----------|------------|------------|--------|
|-------------|----------|------------|------------|--------|
|-------------|----------|------------|------------|--------|
|-------------|-7--------|-(7)--------|-(7)--------|-(7)----|
|-(11)--------|----------|------------|------------|--------|
|-------------|----------|------------|------------|--------|


   W                         +W                         +W                         +H          H
|--------------------------|--------------------------|--------------------------|------------------------|
|--------------------------|--------------------------|--------------------------|------------------------|
|--------------------------|--------------------------|--------------------------|------------------------|
|--------------------------|--------------------------|--------------------------|-------------8----------|
|--8-----------------------|-(8)----------------------|-(8)----------------------|-(8)--------------------|
|--------------------------|--------------------------|--------------------------|------------------------|
|
| Gtr II
|  E   E  Q     E  E  Q       E   E  E  E  E  E  E  E    E   E  E  E  E  E  E  E    Q      Q   E  E  E  E
|--------------------------|--------------12----------|--------------------------|------------------------|
|-----15-------13----15----|-15-----13----------15----|-----15----13----13----15-|--------15-----13-15----|
|-12-----12-------12-------|-----12----12----12----12-|-12-----12----12----12----|-12---------12-------12-|
|--------------------------|--------------------------|--------------------------|------------------------|
|--------------------------|--------------------------|--------------------------|------------------------|
|--------------------------|--------------------------|--------------------------|------------------------|
|
| Gtr II
|  Q.        E  Q     E  E    Q      E  E  E  E  E  E    E   E  E  E  E  E  E  E    E   E  Q   Q     E  E
|--------------------------|--------------------12----|--------------------------|------------------------|
|-----------15-------13----|-15-----15----13----------|-15--------15----13----13-|-----15-----15-------13-|
|-12-----------12-------12-|-----------12----12----12-|-----12-12----12----12----|-12-----12--------12----|
|--------------------------|--------------------------|--------------------------|------------------------|
|--------------------------|--------------------------|--------------------------|------------------------|
|--------------------------|--------------------------|--------------------------|------------------------|


   W                        +W                         +W                         +H            H
|-------------------------|--------------------------|--------------------------|--------------------------|
|-------------------------|--------------------------|--------------------------|--------------------------|
|-------------------------|--------------------------|--------------------------|--------------------------|
|--7----------------------|-(7)----------------------|-(7)----------------------|-(7)----------10----------|
|-------------------------|--------------------------|--------------------------|--------------------------|
|-------------------------|--------------------------|--------------------------|--------------------------|
|
|  Q     E  E  E  E  E  E    E   E  E  E  Q     E  E    E   E  E  E  E  E  E  E    E   E  E  E  E  E  Q
|-------12----------12----|-12--------12-------------|-12--------12-------12----|-12-----------12----------|
|-------------15----------|-----15-------------15----|--------15-------15-------|--------15-------15-------|
|-14-------14----14----14-|--------14----14-------14-|-----14-------14-------14-|-----14----14-------14----|
|-------------------------|--------------------------|--------------------------|--------------------------|
|-------------------------|--------------------------|--------------------------|--------------------------|
|-------------------------|--------------------------|--------------------------|--------------------------|
|
|  E  E  Q     E  E  E  E    E   E  E  E  E  E  Q       E   E  E  E  E  E  E  E    E   E  E  E  E  E  E  E
|-------------12----------|-12-----12-------12-------|--------12-------12-------|-12-----12----------12----|
|-15----------------15----|-----------15-------------|-15-----------15-------15-|--------------15-------15-|
|----12-14-------14----14-|-----14-------14----14----|-----14----14-------14----|-----14----14----14-------|
|-------------------------|--------------------------|--------------------------|--------------------------|
|-------------------------|--------------------------|--------------------------|--------------------------|
|-------------------------|--------------------------|--------------------------|--------------------------|


   W                       +W                          +W                          +W
|-----------------------|---------------------------|---------------------------|---------------------------|
|-----------------------|---------------------------|---------------------------|---------------------------|
|-----------------------|---------------------------|---------------------------|---------------------------|
|-----------------------|---------------------------|---------------------------|---------------------------|
|-11--------------------|-(11)----------------------|-(11)----------------------|-(11)----------------------|
|-----------------------|---------------------------|---------------------------|---------------------------|
|
|  Q   E  E  E  E  E  E     E   E  E  E  E  E  E  E     Q      E  E  E  E  E  E     E   E  E  E  E  E  E  E
|-----15----13----15----|--13--15----13-15----15----|--13-----15----13----15----|--13-----15----13-15----13-|
|-13-----13----13----13-|---------13-------13----13-|------------13----13----13-|------13----13-------13----|
|-----------------------|---------------------------|---------------------------|---------------------------|
|-----------------------|---------------------------|---------------------------|---------------------------|
|-----------------------|---------------------------|---------------------------|---------------------------|
|-----------------------|---------------------------|---------------------------|---------------------------|
|
|  Q   Q     E  E  E  E     E   E  E  E  E  E  E  E     E   E  Q     E  E  E  E     E   E  E  E  E  E  E  E
|-----------15----13----|--15-----13-15----13-15----|--15-----13----15----13----|--15-----13----15----13-15-|
|-----13-------13----13-|------13-------13-------13-|------13----------13----13-|------13----13----13-------|
|-14--------------------|---------------------------|---------------------------|---------------------------|
|-----------------------|---------------------------|---------------------------|---------------------------|
|-----------------------|---------------------------|---------------------------|---------------------------|
|-----------------------|---------------------------|---------------------------|---------------------------|


   W                        +W                         +W                         +W
|-------------------------|--------------------------|--------------------------|------------------------|
|-------------------------|--------------------------|--------------------------|------------------------|
|-------------------------|--------------------------|--------------------------|------------------------|
|--7----------------------|-(7)----------------------|-(7)----------------------|-(7)--------------------|
|-------------------------|--------------------------|--------------------------|------------------------|
|-------------------------|--------------------------|--------------------------|------------------------|
|
|  E  E  Q     E  E  Q       E   E  E  E  E  E  E  E    E   E  E  E  E  E  E  E    Q      Q   E  E  E  E
|-------------------------|--------------12----------|--------------------------|---------------------15-|
|----15-------13----15----|-15-----13----------15----|-----15----13----13----15-|--------15-----13-15----|
|-12----12-------12-------|-----12----12----12----12-|-12-----12----12----12----|-12---------12----------|
|-------------------------|--------------------------|--------------------------|------------------------|
|-------------------------|--------------------------|--------------------------|------------------------|
|-------------------------|--------------------------|--------------------------|------------------------|
|
|  E  E  E  E  Q     E  E    Q      E  E  E  E  E  E    E   E  E  E  E  E  E  E    E   E  Q   Q     E  E
|----13-------------------|--------------------12----|--------------------------|------------------------|
|-13-------15-------13----|-15-----15----13----------|-15--------15----13----13-|-----15-----15-------13-|
|-------12----12-------12-|-----------12----12----12-|-----12-12----12----12----|-12-----12--------12----|
|-------------------------|--------------------------|--------------------------|------------------------|
|-------------------------|--------------------------|--------------------------|------------------------|
|-------------------------|--------------------------|--------------------------|------------------------|


   W                        +W              +W           +H     H
|-------------------------|---------------|------------|---------------|
|-------------------------|---------------|------------|---------------|
|-------------------------|---------------|------------|---------------|
|-------------------------|---------------|------------|--------8------|
|--8----------------------|-(8)-----------|-(8)--------|-(8)-----------|
|-------------------------|---------------|------------|---------------|
|
| Gtr IV
|                                            ~~~~~~~~~~~~~~~~
|  H           H             H     Q.   E   +W           +H.       E E
|-------------------------|---------------|------------|---------------|
|-------------------------|---------------|------------|---------------|
|-------------------------|--------9----7-|-(7)--------|-(7)-----------|
|--7-----------9----------|-10------------|------------|-----------7-9-|
|-------------------------|---------------|------------|---------------|
|-------------------------|---------------|------------|---------------|
|
|  E  E  E  E  E  E  E  E
|----------15----------15-|---------------|------------|---------------|
|----13-15-------13-15----|---------------|------------|---------------|
|-12----------12----------|---------------|------------|---------------|
|-------------------------|---------------|------------|---------------|
|-------------------------|---------------|------------|---------------|
|-------------------------|---------------|------------|---------------|


   W           +W            +W            +H      H
|-----------|-------------|-------------|---------------|
|-----------|-------------|-------------|---------------|
|-----------|-------------|-------------|---------------|
|--7--------|--(7)--------|--(7)--------|--(7)----10----|
|-----------|-------------|-------------|---------------|
|-----------|-------------|-------------|---------------|
|
|  ~~~~~~~~~~~~~~~~~~~~~~~~~~~~~~~~~~~~~~~~~~~~
|  W           +W            +W            +W
|-----------|-------------|-------------|---------------|
|-----------|-------------|-------------|---------------|
|-----------|-------------|-------------|---------------|
|-10--------|-(10)--------|-(10)--------|-(10)----------|
|-----------|-------------|-------------|---------------|
|-----------|-------------|-------------|---------------|
|
|-----------|-------------|-------------|---------------|
|-----------|-------------|-------------|---------------|
|-----------|-------------|-------------|---------------|
|-----------|-------------|-------------|---------------|
|-----------|-------------|-------------|---------------|
|-----------|-------------|-------------|---------------|


   W            +W               +W            +W
|------------|----------------|-------------|---------------|
|------------|----------------|-------------|---------------|
|------------|----------------|-------------|---------------|
|------------|----------------|-------------|---------------|
|-10---------|-(10)-----------|-(10)--------|-(10)----------|
|------------|----------------|-------------|---------------|
|
|                                 ~~~~~~~~~~~~~~~~~
|  H    H        H     Q.   E    +W            +H.      E E
|------------|----------------|-------------|---------------|
|------------|----------------|-------------|---------------|
|------------|---------9----7-|--(7)--------|--(7)----------|
|--7----9----|--10------------|-------------|-----------7-9-|
|------------|----------------|-------------|---------------|
|------------|----------------|-------------|---------------|


   W           +W            +W            +W
|-----------|-------------|-------------|---------|
|-----------|-------------|-------------|---------|
|-----------|-------------|-------------|---------|
|--7--------|--(7)--------|--(7)--------|--(7)----|
|-----------|-------------|-------------|---------|
|-----------|-------------|-------------|---------|
|
|  ~~~~~~~~~~~~~~~~~~~~~~~~~~~~~~~~~~~~~~~~~~~~
|  W           +W            +W            +W
|-----------|-------------|-------------|---------|
|-----------|-------------|-------------|---------|
|-----------|-------------|-------------|---------|
|-10--------|-(10)--------|-(10)--------|-(10)----|
|-----------|-------------|-------------|---------|
|-----------|-------------|-------------|---------|


   W            +W               +W            +H     H
|------------|----------------|-------------|----------------|
|------------|----------------|-------------|----------------|
|------------|----------------|-------------|----------------|
|------------|----------------|-------------|---------8------|
|-10---------|-(10)-----------|-(10)--------|-(10)-----------|
|------------|----------------|-------------|----------------|
|
| Gtr V
|  H    H        H     Q.   E    +W            +H.       E E
|------------|----------------|-------------|----------------|
|------------|----------------|-------------|----------------|
|------------|---------9----7-|--(7)--------|--(7)-----------|
|--7----9----|--10------------|-------------|------------7-9-|
|------------|----------------|-------------|----------------|
|------------|----------------|-------------|----------------|


   W           +W            +W            +H      H
|-----------|-------------|-------------|---------------|
|-----------|-------------|-------------|---------------|
|-----------|-------------|-------------|---------------|
|--7--------|--(7)--------|--(7)--------|--(7)----10----|
|-----------|-------------|-------------|---------------|
|-----------|-------------|-------------|---------------|
|
|  W           +W            +W            +W
|-----------|-------------|-------------|---------------|
|-----------|-------------|-------------|---------------|
|-----------|-------------|-------------|---------------|
|-10--------|-(10)--------|-(10)--------|-(10)----------|
|-----------|-------------|-------------|---------------|
|-----------|-------------|-------------|---------------|


   W            +W               +W            +W              W
|------------|----------------|-------------|---------------|--------------------------|
|------------|----------------|-------------|---------------|--------------------------|
|------------|----------------|-------------|---------------|--------------------------|
|------------|----------------|-------------|---------------|--7-----------------------|
|-10---------|-(10)-----------|-(10)--------|-(10)----------|--------------------------|
|------------|----------------|-------------|---------------|--------------------------|
|
|                                                             Gtr VI
|  H    H        H     Q.   E    +W            +H.      E E    E   E  Q     E  E  E
|------------|----------------|-------------|---------------|--------------------------|
|------------|----------------|-------------|---------------|-----15-------13----15----|
|------------|---------9----7-|--(7)--------|--(7)----------|-12-----12-------12-------|
|--7----9----|--10------------|-------------|-----------7-9-|--------------------------|
|------------|----------------|-------------|---------------|--------------------------|
|------------|----------------|-------------|---------------|--------------------------|
|
|                                                             Gtr VI
|  W             W                W             W              Q.        E  Q     E  E
|------------|----------------|-------------|---------------|--------------------------|
|------------|----------------|-------------|---------------|-----------15-------13----|
|------------|----------------|-------------|---------------|-12-----------12-------12-|
|------------|----------------|-------------|---------------|--------------------------|
|------------|----------------|-------------|---------------|--------------------------|
|------------|----------------|-------------|---------------|--------------------------|


  +W                         +W                         +W
|--------------------------|--------------------------|------------------------|
|--------------------------|--------------------------|------------------------|
|--------------------------|--------------------------|------------------------|
|-(7)----------------------|-(7)----------------------|-(7)--------------------|
|--------------------------|--------------------------|------------------------|
|--------------------------|--------------------------|------------------------|
|
|  E   E  E  E  E  E  E  E    E   E  E  E  E  E  E  E    Q      Q   E  E  E  E
|--------------12----------|--------------------------|---------------13-12----|
|-15-----13----------15----|-----15----13----13----15-|--------15-----------13-|
|-----12----12----12----12-|-12-----12----12----12----|-12---------14----------|
|--------------------------|--------------------------|------------------------|
|--------------------------|--------------------------|------------------------|
|--------------------------|--------------------------|------------------------|
|
|  Q      E  E  E  E  E  E    E   E  E  E  E  E  E  E    E   E  Q   Q     E  E
|--------------------12----|--------------------------|---------------------13-|
|-15-----15----13----------|-15--------15----13----13-|-----15-----15----------|
|-----------12----12----12-|-----12-12----12----12----|-12-----12--------14----|
|--------------------------|--------------------------|------------------------|
|--------------------------|--------------------------|------------------------|
|--------------------------|--------------------------|------------------------|


  Gtr V
   W                        +H             H          W            +W
|-------------------------|------------------------|------------|-------------------|
|-------------------------|------------------------|------------|-------------------|
|-------------------------|----------------7-------|-(7)--------|--(7)--------------|
|--7----------------------|-(7)-----------(7)------|--8---------|--(8)--------------|
|-------------------------|------------------------|------------|-------------------|
|-------------------------|------------------------|------------|-------------------|
|
| Gtrs III, IV
|                                                     ~~~~~~~~~~~~~~~~~
|  H           Q     E  E    Q.        E  +Q    Q     W            +H      E  Q   E
|-------------------------|--------------------18--|-17---------|-(17)-----------17-|
|-------------------------|-20--------18-(18)------|------------|---------18-20-----|
|----------------------19-|------------------------|------------|-------------------|
|-------------------19----|------------------------|------------|-------------------|
|-------------------------|------------------------|------------|-------------------|
|-------------------------|------------------------|------------|-------------------|
|
|  E  E  E  E  E  E  E  E    E   E  E  E   H
|----13-12-12----13-12----|-----13-12--------------|------------|-------------------|
|-13----18-13-13-------13-|-----------13-----------|------------|-------------------|
|-14-14-------14-14-------|-14---------------------|------------|-------------------|
|-------------------------|------------------------|------------|-------------------|
|-------------------------|------------------------|------------|-------------------|
|-------------------------|------------------------|------------|-------------------|


   W           +W                  W           +W
|-----------|-------------------|-----------|-----------------------|
|-----------|-------------------|-----------|-----------------------|
|--9--------|--(9)--------------|-10--------|-(10)------------------|
|-10--------|-(10)--------------|-12--------|-(12)------------------|
|-----------|-------------------|-----------|-----------------------|
|-----------|-------------------|-----------|-----------------------|
|
|  ~~~~~~~~~~~~~~~~                ~~~~~~~~~~~~~~~~
|  W           +H      E  Q   E    W           +H      +E   E  E  E
|-----------|----------------17-|-----------|-----------------------|
|-----------|---------17-18-----|-----------|--------------18-17----|
|-19--------|-(19)--------------|-19--------|-(19)----(19)-------17-|
|-----------|-------------------|-----------|-----------------------|
|-----------|-------------------|-----------|-----------------------|
|-----------|-------------------|-----------|-----------------------|
|
|-----------|-------------------|-----------|-----------------------|
|-----------|-------------------|-----------|-----------------------|
|-----------|-------------------|-----------|-----------------------|
|-----------|-------------------|-----------|-----------------------|
|-----------|-------------------|-----------|-----------------------|
|-----------|-------------------|-----------|-----------------------|


   W               +H         H          W            +W
|----------------|--------------------|------------|-------------------|
|----------------|--------------------|------------|-------------------|
|----------------|------------7-------|-(7)--------|--(7)--------------|
|--7-------------|-(7)-------(7)------|--8---------|--(8)--------------|
|----------------|--------------------|------------|-------------------|
|----------------|--------------------|------------|-------------------|
|
|                                        ~~~~~~~~~~~~~~~~~
|  H.       E  E    Q.    E  +Q    Q     W            +H      E  Q   E
|----------------|----------------18--|------------|-------------------|
|----------17----|-20----18-(18)------|-20---------|-(20)----17-18--20-|
|-17----------19-|--------------------|------------|-------------------|
|----------------|--------------------|------------|-------------------|
|----------------|--------------------|------------|-------------------|
|----------------|--------------------|------------|-------------------|


    W            +W                W           +W
|-------------|-----------------|-----------|---------|
|-------------|-----------------|-----------|---------|
|---9---------|--(9)------------|--8--------|--(8)----|
|--10---------|-(10)------------|-----------|---------|
|-------------|-----------------|-10--------|-(10)----|
|-------------|-----------------|-----------|---------|
|                                  W           +W
|
|   ~~~~~~~~~~~~~~~~~              ~~~~~~~~~~~~~~~~
|  +W            +H.       E  E    W           +W
|-------------|-----------------|-20--------|-(20)----|
|-(20)--------|-(20)------18-20-|-----------|---------|
|-------------|-----------------|-----------|---------|
|-------------|-----------------|-----------|---------|
|-------------|-----------------|-----------|---------|
|-------------|-----------------|-----------|---------|


   \1__________________________\2________________________
   W                          +W
|---------------------------|---------------------------|
|---------------------------|---------------------------|
|---------------------------|---------------------------|
|---------------------------|---------------------------|
|--5------------------------|-(5)-----------------------|
|---------------------------|---------------------------|
|
| Gtr II
|  E    E  Q     E  E  Q       E    E  E  E  E  E  E  E
|---------------------------|---------------12----------|
|------15-------13----15----|-15------13----------15----|
|-12------12-------12-------|------12----12----12----12-|
|---------------------------|---------------------------|
|---------------------------|---------------------------|
|---------------------------|---------------------------|
|
| Gtr II
|  Q.         E  Q     E  E    Q       E  E  E  E  E  E
|---------------------------|---------------------12----|
|------------15-------13----|-15------15----13----------|
|-12------------12-------12-|------------12----12----12-|
|---------------------------|---------------------------|
|---------------------------|---------------------------|
|---------------------------|---------------------------|


   \3__________________________\4________________________
  +W                          +W
|---------------------------|--------------------------||
|---------------------------|-------------------------o||
|---------------------------|--------------------------||
|---------------------------|--------------------------||
|-(5)-----------------------|-(5)---------------------o||
|---------------------------|--------------------------||
|
|  E    E  E  E  E  E  E  E    Q       Q   E  E  E  E
|---------------------------|----------------------15--||
|------15----13----13----15-|---------15-----13-15----o||
|-12------12----12----12----|-12----------12-----------||
|---------------------------|--------------------------||
|---------------------------|-------------------------o||
|---------------------------|--------------------------||
|
|  E    E  E  E  E  E  E  E    E    E  Q   Q     E  E
|---------------------------|--------------------------||
|-15---------15----13----13-|------15-----15-------13-o||
|------12-12----12----12----|-12------12--------12-----||
|---------------------------|--------------------------||
|---------------------------|-------------------------o||
|---------------------------|--------------------------||

            
            
Suggest correction
Creating personal tab
Creating personal tab
You can edit any tab online and save it as your Personal.

You can edit, replace or remove any tab part or add personal notes – all changes will be seen only by you.

Personal tabs can be accessed anytime from any device, even offline.
Learn more »
Give kudos to tab author, rate the tab!
1 2 3 4 5
comments
print report bad tab
guest
You may want to rate the tab now too:
select rating
Wanna post a correction for this tab? Suggest correction