Oops, an error
Loading. Please wait.

Super Mario - Underworld bass

18,180 views 6 this week
2 commentsread comments
1 2 3 4 5
x 14
add to favorites
×
Save as Personal and add changes to this tab that will be seen only by you. Learn more ›
×
You can save this tab as Personal to edit and correct it or add notes. All changes will be seen only by you. Learn more »
launch autoscroll
font size
0
reset
guitar tuner
edit
Autoscroll
slow
fast
+/-
esc
set tempo
stop
Author
Difficulty
Super Mario 64 - Hazy Maze Cave Level (Underworld Theme)

This tab may also apply to other Mario underworld themes (Super Mario Bros. 3)
Listen for timing as I have not done the greatest job depicting it.. 


G|----17----14----15--------------17----14----15------------------------|   
D|----------------------------------------------------------------------|   
A|-15----12----13--------------15----12----13---------------------------|   
E|----------------------------------------------------------------------|

G|----------------------------------------------------------------------|   
D|----15----12----13--------------15----12----13------------------------|   
A|----------------------------------------------------------------------|   
E|-13----10----11--------------13----10----11---------------------------|

G|----------------------------------------------16-15-------------------|   
D|-13-12-11-10--13--12---------11--10--16-15-14-------14-13-------------|   
A|---------------------11--10-------------------------------14-13-12-11-|   
E|----------------------------------------------------------------------|

Repeat as necessary and try slapping the octaves ;)

Questions, comments? E-mail me at sebbelanger@hotmail.com

            
            
Suggest correction
Creating personal tab
Creating personal tab
You can edit any tab online and save it as your Personal.

You can edit, replace or remove any tab part or add personal notes – all changes will be seen only by you.

Personal tabs can be accessed anytime from any device, even offline.
Learn more »
comments
print report bad tab
2 comments total.
0 reply
B.C.RichRulz 331 Sep 28, 2009 12:31 PM

wow mint!! i love playing mario stuff on bass thanx man, i think you should make more

0 reply
theb3r 10 Oct 20, 2017 11:16 PM

is good thenks

guest
You may want to rate the tab now too:
select rating
Wanna post a correction for this tab? Suggest correction