Oops, an error
Loading. Please wait.

Super Smash Bros For Nintendo 3Ds Wii U - Main Theme tab

652 views 30 this week
2 commentsread comments
1 2 3 4 5
3 more votes to show rating
add to favorites
×
Save as Personal and add changes to this tab that will be seen only by you. Learn more ›
×
You can save this tab as Personal to edit and correct it or add notes. All changes will be seen only by you. Learn more »
launch autoscroll
font size
0
reset
how to read this tab
guitar tuner
edit
Autoscroll
slow
fast
+/-
esc
set tempo
stop
Author
Difficulty
Track 1: Rhythm guitar

 
intro
E|---------------------------------|---------------------------------|---------------------------------|
B|-3---3---3---3---3---3---3---3---|---------------------------------|---------------------------------|
G|-2---2---2---2---2---2---2---2---|---------------------------------|---------------------------------|
D|-0---0---0---0---0---0---0---0---|-3---3---3---3---3---3---3---3---|-5---5---5---5---5---5---5---5---|
A|---------------------------------|-3---3---3---3---3---3---3---3---|-5---5---5---5---5---5---5---5---|
E|---------------------------------|-1---1---1---1---1---1---1---1---|-3---3---3---3---3---3---3---3---|


E|---------------------------------|---------------------------------|---------------------------------|
B|---------------------------------|-3---3---3---3---3---3---3---3---|---------------------------------|
G|-2---2---2---2---2---2---2---2---|-2---2---2---2---2---2---2---2---|---------------------------------|
D|-2---2---2---2---2---2---2---2---|-0---0---0---0---0---0---0---0---|-3---3---3---3---3---3---3---3---|
A|-0---0---0---0---0---0---0---0---|---------------------------------|-3---3---3---3---3---3---3---3---|
E|---------------------------------|---------------------------------|-1---1---1---1---1---1---1---1---|

                                                                                   Main part
E|---------------------------------|---------------------------------|---------1-----------3-----------|
B|---------------------------------|---------------------------------|---------1-----------3-----------|
G|---------------------------------|-2---2---2---2---2---2---2---2---|---------2-----------4-----------|
D|-5---5---5---5---5---5---5---5---|-2---2---2---2---2---2---2---2---|-0---0-------0---0-------0---0---|
A|-5---5---5---5---5---5---5---5---|-0---0---0---0---0---0---0---0---|---------------------------------|
E|-3---3---3---3---3---3---3---3---|---------------------------------|---------------------------------|


E|---------5-----------3-----------|---------1-----------3-----------|-----------------------------------|
B|---------3-----------3-----------|---------1-----------3-----------|-----5--5--5-------3---3-----------|
G|---------5-----------4-----------|---------2-----------4-----------|-----5--5--5-------4---4-----------|
D|-0---0-------0---0-------0---0---|-0---0-------0---0-------0---0---|-0-------------0-----------0---0---|
A|---------------------------------|---------------------------------|-----------------------------------|
E|---------------------------------|---------------------------------|-----------------------------------|


E|---------1-----------3-----------|---------5-----------3-----------|-----------------------------------|
B|---------1-----------3-----------|---------3-----------3-----------|---------3-------1------1------1---|
G|---------2-----------4-----------|---------5-----------4-----------|---------2-------0------0------0---|
D|-0---0-------0---0-------0---0---|-0---0-------0---0-------0---0---|---------3-------2------2------2---|
A|---------------------------------|---------------------------------|-1---1-------0---0------0------0---|
E|---------------------------------|---------------------------------|-----------------------------------|

                                           Bridge
E|---------------------------------|---------------------------------|---------3-------0---------------|
B|---------------------------------|-----------------3---------------|-------------------------1-------|
G|---------------------------------|---------2---------------2-------|---------------------------------|
D|-5---5---5---5---5---5-----------|---------------------------------|---------------------------------|
A|-5---5---5---5---5---5---5---5---|-1---1-------1-------1-------1---|-1---1-------1-------1-------1---|
E|-3---3---3---3---3---3---3---3---|---------------------------------|---------------------------------|


E|---------------------------------|---------3-----------------------------|---------------------------------|
B|---------1-------1-------1-------|---------3-----------------------------|---------------------------------|
G|---------2-------2-------2-------|---------2-------2--------0--------2---|-------------------------2-------|
D|---------------------------------|-0---0-------0---0--------2--------3---|---------5---------------2-------|
A|-0---0-------0-------0-------0---|---------------------------------------|---------5-------0---0-------0---|
E|---------------------------------|---------------------------------------|-3---3-------3-------------------|


E|---------------------------------|---------------------------------|---------------------------------|
B|---------------------------------|---------------------------------|---------------------------------|
G|---------3-------3-------3-------|-----------------5---------------|-2---2---2---2---2---2---2---2---|
D|---------3-------3-------3-------|---------5---------------5-------|-2---2---2---2---2---2---2---2---|
A|-1---1-------1-------1-------1---|-3---3-------3-------3-------3---|-0---0---0---0---0---0---0---0---|
E|---------------------------------|---------------------------------|---------------------------------|


E|-----------------------------------------|---------------------|-------------------------|
B|-----------------------------------------|------3---------3----|------3---------0----1---|
G|-------------------2--------0--------2---|------2---------2----|------2----2----0----2---|
D|-------------------0--------2--------3---|------3---------3----|------3----3-------------|
A|-0---0--0--0---0-------------------------|-1----1----1----1----|-1----1------------------|
E|-----------------------------------------|---------------------|-------------------------|

                                                                  Main
E|---------------------|---------------------|--------|---------1-----------3-----------|
B|------1---------1----|------3---------3----|--------|---------1-----------3-----------|
G|------0---------0----|------2---------2----|-2------|---------2-----------4-----------|
D|------2---------2----|-0----0----0----0----|-0------|-0---0-------0---0-------0---0---|
A|-0----0----0----0----|---------------------|--------|---------------------------------|
E|---------------------|---------------------|--------|---------------------------------|


E|---------5-----------3-----------|---------1-----------3-----------|-----------------------------------|
B|---------3-----------3-----------|---------1-----------3-----------|-----5--5--5-------3---3-----------|
G|---------5-----------4-----------|---------2-----------4-----------|-----5--5--5-------4---4-----------|
D|-0---0-------0---0-------0---0---|-0---0-------0---0-------0---0---|-0-------------0-----------0---0---|
A|---------------------------------|---------------------------------|-----------------------------------|
E|---------------------------------|---------------------------------|-----------------------------------|

 outro
E|---------------------|-----------------------------|---------------------|---------------------|
B|-3----3--------------|-----------------------------|---------------------|---------------------|
G|-2----2----5----5----|-3----3----2------2------2---|---------------------|-2----2----2----2----|
D|-0----0----5----5----|-3----3----2------2------2---|-5----5----5----5----|-2----2----2----2----|
A|-----------3----3----|-1----1----0------0------0---|-5----5----5----5----|-0----0----0----0----|
E|---------------------|-----------------------------|-3----3----3----3----|---------------------|


E|---------------------|---------------------|--------|
B|-3----3----3----3----|---------------------|-3------|
G|-2----2----2----2----|---------------------|-2------|
D|-0----0----0----0----|-5----5----5----5----|-0------|
A|---------------------|-5----5----5----5----|--------|
E|---------------------|-3----3----3----3----|--------|

Track 2: Lead guitar
intro
E|---------------------------|---------------------------|---------------------------|
B|---------------------------|---------------------------|---------------------------|
G|-----------7---7---7---7---|-----------5---5---5---5---|-----------4---4---4---4---|
D|-----------7---7---7---7---|-----------5---5---5---5---|-----------5---5---5---5---|
A|---------------------------|---------------------------|---------------------------|
E|---------------------------|---------------------------|---------------------------|


E|---------------------------------|---------------------------|-----------5---5---5---5---|
B|-----------------5---5---5---5---|-----------6---6---6---6---|-----------6---6---6---6---|
G|-7---7---7---7---5---5---5---5---|-----------7---7---7---7---|---------------------------|
D|-7---7---7---7-------------------|---------------------------|---------------------------|
A|---------------------------------|---------------------------|---------------------------|
E|---------------------------------|---------------------------|---------------------------|

                                                                                Main
E|-----------7---7---7---7---|-10--10--10--9---9---9---9---------|-------------------------------|
B|-----------8---8---8---8---|-10--10--10--10--10--10--10-----8--|-10-------8--10-12-------10-12-|
G|---------------------------|-----------------------------10----|-------------------------------|
D|---------------------------|-----------------------------------|-------------------------------|
A|---------------------------|-----------------------------------|-------------------------------|
E|---------------------------|-----------------------------------|-------------------------------|


E|-------------10----------------------|------------------------------------|--------------------------|
B|-13-------------13-12----------------|------------------------------------|-----------------------8--|
G|-------------------------12----------|-10-------12-14-12------------------|--------------------10----|
D|---------------------------------12--|----------------------14------10----|-12-----------------------|
A|-------------------------------------|------------------------------------|--------------------------|
E|-------------------------------------|------------------------------------|--------------------------|

E|-------------------------------------|-------------------10----------10------12--|
B|-10----------8--10-12----------10-12-|-13-------------------13-12----------------|
G|-------------------------------------|-------------------------------------------|
D|-------------------------------------|-------------------------------------------|
A|-------------------------------------|-------------------------------------------|
E|-------------------------------------|-------------------------------------------|

                                                                  Bridge
E|-13----------13-15-12----------------------|-10-----|-13------------15------13--|
B|-------------------------13----------10----|--------|---------------------------|
G|-------------------------------------------|--------|---------------------------|
D|-------------------------------------------|--------|---------------------------|
A|-------------------------------------------|--------|---------------------------|
E|-------------------------------------------|--------|---------------------------|


E|-12-----------------------|-12------------------13------12--|-12--10--------------------------|
B|--------------------13-15-|---------------------------------|---------------------------------|
G|--------------------------|---------------------------------|---------------------------------|
D|--------------------------|---------------------------------|---------------------------------|
A|--------------------------|---------------------------------|---------------------------------|
E|--------------------------|---------------------------------|---------------------------------|


E|-------------------------------------------|--------------------12-------13----|
B|-11--------------10-11-13------------11-13-|-15--------15----------------------|
G|-------------------------------------------|-----------------------------------|
D|-------------------------------------------|-----------------------------------|
A|-------------------------------------------|-----------------------------------|
E|-------------------------------------------|-----------------------------------|


E|-13--------12--------|--------|--------|---------------------------------------|
B|---------------------|--------|--------|-11----------10-11-13------------11-13-|
G|---------------------|--------|--------|---------------------------------------|
D|---------------------|--------|--------|---------------------------------------|
A|---------------------|--------|--------|---------------------------------------|
E|---------------------|--------|--------|---------------------------------------|


E|----------------12---13----|-17--------15---17---|-18----------|-----------------17--------15--|
B|-15--------15--------------|---------------------|-------------|----------------------17-------|
G|---------------------------|---------------------|-------------|-------------------------------|
D|---------------------------|---------------------|-------------|-------------------------------|
A|---------------------------|---------------------|-------------|-------------------------------|
E|---------------------------|---------------------|-------------|-------------------------------|

Main
E|-------------------------------|-------------10----------------------|------------------------------------|
B|-10-------8--10-12-------10-12-|-13-------------13-12----------------|------------------------------------|
G|-------------------------------|-------------------------12----------|-10-------12-14-12------------------|
D|-------------------------------|---------------------------------12--|----------------------14------10----|
A|-------------------------------|-------------------------------------|------------------------------------|
E|-------------------------------|-------------------------------------|------------------------------------|


                                  Outro
E|--------------------------|-------------------------------------|---------------------------------------12-|
B|-----------------------8--|-10----------8--10-12----------10-12-|-13----------------12-13-15----15---------|
G|--------------------10----|-------------------------------------|------------------------------------------|
D|-12-----------------------|-------------------------------------|------------------------------------------|
A|--------------------------|-------------------------------------|------------------------------------------|
E|--------------------------|-------------------------------------|------------------------------------------|


E|-13-----|-12---------------|-10-----|---------------------------------|-------------|
B|--------|-------13----10---|--------|---------------------------------|-------------|
G|--------|------------------|--------|-12----------10----------9-------|-7-----------|
D|--------|------------------|--------|---------------------------------|-------------|
A|--------|------------------|--------|---------------------------------|-------------|
E|--------|------------------|--------|---------------------------------|-------------|

            
            
Suggest correction
Creating personal tab
Creating personal tab
You can edit any tab online and save it as your Personal.

You can edit, replace or remove any tab part or add personal notes – all changes will be seen only by you.

Personal tabs can be accessed anytime from any device, even offline.
Learn more »
Give kudos to tab author, rate the tab!
1 2 3 4 5
comments
print report bad tab
2 comments total.
+1 reply
hamhamham208 10 May 05, 2017 01:39 AM

Noice!

0 reply
eaterjlong 31 May 08, 2017 10:15 PM

Thank you!

guest
You may want to rate the tab now too:
select rating
Wanna post a correction for this tab? Suggest correction