Oops, an error
Loading. Please wait.
4,184 views 15 this week
no commentswrite comment
1 2 3 4 5
2 more votes to show rating
add to favorites
×
Save as Personal and add changes to this tab that will be seen only by you. Learn more ›
×
You can save this tab as Personal to edit and correct it or add notes. All changes will be seen only by you. Learn more »
launch autoscroll
font size
0
reset
how to read this tab
guitar tuner
edit
Autoscroll
slow
fast
+/-
esc
set tempo
stop
Okay, there is nothing fancy here, no hammer-ons or pull-offs, no tremelo, no chords 
For those reasons, this song is relatively simple and easy to play (fun for beginners).

For Beginners:
Be careful to note the sixteenth note flutter in the first measure (you can omit it [the 
of beat three]).

Work it out smoothly, and eventually you can accelerate this song to awesome speeds. The 
is your decision on this song, personally I prefer around 140 BPM, or even a more 
pace. Have fun!

Remeber to hold each note until the next.

:|--------------Tetris-------------|

e|0---------0-----|--------0-------|
B|----0-1-3--31-0-|------1-----3-1-|
G|----------------|2---2-----------|
D|----------------|----------------|
A|----------------|----------------|
E|----------------|----------------|
T|1-a-2-a-3-a-4-a-|1-a-2-a-3-a-4-a-| <--- Time

e|------------0---|----------------|
B|0---0-1-3-------|1---------------|
G|----------------|----2---2-------|
D|----------------|----------------|
A|----------------|----------------|
E|----------------|----------------|
T|1-a-2-a-3-a-4-a-|1-a-2-a-3-a-4-a-|

e|--------5---3-1-|0-------0-------|
B|--3---6---------|------1-----3-1-|
G|----------------|----------------|
D|----------------|----------------|
A|----------------|----------------|
E|----------------|----------------|
T|1-a-2-a-3-a-4-a-|1-a-2-a-3-a-4-a-|

e|------------0---|----------------|
B|0---0-1-3-------|1---------------|
G|----------------|----2---2-------|
D|----------------|----------------|
A|----------------|----------------|
E|----------------|----------------|
T|1-a-2-a-3-a-4-a-|1-a-2-a-3-a-4-a-|

e|----------------|----------------|
B|----------------|----------------|
G|----------------|----------------|
D|2---------------|0---------------|
A|--------3-------|--------2-------|
E|----------------|----------------|
T|1-a-2-a-3-a-4-a-|1-a-2-a-3-a-4-a-|

e|----------------|----------------|
B|----------------|----------------|
G|----------------|----------------|
D|----------------|----------------|
A|3-------0-------|----------------|
E|----------------|4---------------|
T|1-a-2-a-3-a-4-a-|1-a-2-a-3-a-4-a-|

e|----------------|----------------|
B|----------------|----------------|
G|----------------|----------------|
D|2---------------|0---------------|
A|--------3-------|--------2-------|
E|----------------|----------------|
T|1-a-2-a-3-a-4-a-|1-a-2-a-3-a-4-a-|

e|----------------|----------------|
B|----------------|----------------|
G|--------2-------|1---------------|
D|----2-----------|----------------|
A|3---------------|----------------|
E|----------------|----------------|
T|1-a-2-a-3-a-4-a-|1-a-2-a-3-a-4-a-|

Repeat indefinitely (forever XD)...

            
            
Suggest correction
Creating personal tab
Creating personal tab
You can edit any tab online and save it as your Personal.

You can edit, replace or remove any tab part or add personal notes – all changes will be seen only by you.

Personal tabs can be accessed anytime from any device, even offline.
Learn more »
Give kudos to tab author, rate the tab!
1 2 3 4 5
comments
print report bad tab
guest
Wanna post a correction for this tab? Suggest correction