Oops, an error
Loading. Please wait.

The Legend Of Zelda - Eponas Song bass

version 1
version 1

Whole song

17,585 views 6 this week
2 commentsread comments
1 2 3 4 5
x 5
add to favorites
×
Save as Personal and add changes to this tab that will be seen only by you. Learn more ›
×
You can save this tab as Personal to edit and correct it or add notes. All changes will be seen only by you. Learn more »
launch autoscroll
font size
0
reset
guitar tuner
edit
Autoscroll
slow
fast
+/-
esc
set tempo
stop
Author
Unregistered
Hey this is a full version of Epona's Song, not Lon Lon Ranch, there's some weirdness in
which I dunno what to play blah blah blah, so yeah I tabbed this straight from a 10-hole
to bass, but it'd probly work just as well on a regular guitar whatever, btw it's my 
tab so if it sucks I'm sorry, enjoy


First Verse

G|--5-20----5-20----5-20-2-0--|
D|----------------------------|
A|----------------------------|
E|----------------------------|

G|--------4-52----5-5-5-4-20--|
D|--2-1-2---------------------|
A|----------------------------|
E|----------------------------|

G|--5-20----5-20----5-20-2-0--|
D|----------------------------|
A|----------------------------|
E|----------------------------|

G|--------2-45----5-5-7-5--|
D|--2-1-2------------------|
A|-------------------------|
E|-------------------------|

Second Verse

G|-----0----2----------0-5-2--|
D|--2-3-------3-----2-3-------|
A|-------------2--------------|
E|----------------------------|

G|--2-0---0-----------2-0-24--|
D|------3---2-----0-0---------|
A|-----------2----------------|
E|----------------------------|

G|-----0----2----------0-5-2--|
D|--2-3-------3-----2-3-------|
A|-------------2--------------|
E|----------------------------|

G|--2-0---0-45----------0--|
D|------3---------0-2-4----|
A|-------------------------|
E|-------------------------|

Repeat First Verse

Outro (slow and let ring)

G|--------2-45----5-7-5--|
D|--2-1-2----------------|
A|-----------------------|
E|-----------------------|

            
            
Suggest correction
Creating personal tab
Creating personal tab
You can edit any tab online and save it as your Personal.

You can edit, replace or remove any tab part or add personal notes – all changes will be seen only by you.

Personal tabs can be accessed anytime from any device, even offline.
Learn more »
comments
print report bad tab
2 comments total.
+1 reply
blenky 10 Apr 16, 2008 07:46 PM

is that meant 2 b -5-2-0 not -5-20-??

0 reply
Aknowles2003 10 Apr 02, 2016 07:20 PM, edited at 11:21 pm

My thought exactly
And it is, if you play it that way it sound right

guest
Wanna post a correction for this tab? Suggest correction