Oops, an error
Loading. Please wait.

The Legend Of Zelda - Eponas Song bass

version 2
version 2

Whole song

6,006 views 6 this week
no commentswrite comment
1 2 3 4 5
x 7
add to favorites
×
Save as Personal and add changes to this tab that will be seen only by you. Learn more ›
×
You can save this tab as Personal to edit and correct it or add notes. All changes will be seen only by you. Learn more »
launch autoscroll
font size
0
reset
guitar tuner
edit
Autoscroll
slow
fast
+/-
esc
set tempo
stop
I created a better version of this song because of the bad sound quality of the 
other version of this site i hope you enjoy the tab below:

Verse 1

G|--5------5------5---------|
D|----7-5----7-5----7-5--7-5|
A|--------------------------|
E|--------------------------|

G|---------------------------|
D|--------9-10-7--10-10-9-7-5|
A|--7-6-7--------------------|
E|---------------------------|

G|--5------5------5---------|
D|----7-5----7-5----7-5--7-5|
A|--------------------------|
E|--------------------------|

G|---------------------------|
D|--------7-9-10--10-10-12-10|
A|--7-6-7--------------------|
E|---------------------------|

Verse 2

G|--------------------------|
D|---------7-----------10-7-|
A|--7-8-10--8--7-8-10-------|
E|-----------7--------------|

G|-----------------------------|
D|--7-5---7---7---------7-5-79-|
A|------8---8---9---5-5--------|
E|----------------9------------|

G|--------------------------|
D|---------7-----------10-7-|
A|--7-8-10--8--7-8-10-------|
E|-----------7--------------|

G|--------------------------|
D|--7-------9-10-----4-5----|
A|---5-8-10------5-7--------|
E|--------------------------|

Repeat Verse 1 before you play

Outro

G|--------------------------|
D|---------7-9-10---10-12-10|
A|--7-6-7-------------------|
E|--------------------------|

Play Outro Slowly and let all notes last

            
            
Suggest correction
Creating personal tab
Creating personal tab
You can edit any tab online and save it as your Personal.

You can edit, replace or remove any tab part or add personal notes – all changes will be seen only by you.

Personal tabs can be accessed anytime from any device, even offline.
Learn more »
comments
print report bad tab
guest
You may want to rate the tab now too:
select rating
Wanna post a correction for this tab? Suggest correction