Oops, an error
Loading. Please wait.

The Legend Of Zelda - Ocarina Of Time - Song Of Storms tab

version 5
version 5

Whole song

11,097 views 60 this week
no commentswrite comment
1 2 3 4 5
x 3
add to favorites
×
Save as Personal and add changes to this tab that will be seen only by you. Learn more ›
×
You can save this tab as Personal to edit and correct it or add notes. All changes will be seen only by you. Learn more »
launch autoscroll
font size
0
reset
how to read this tab
guitar tuner
edit
Autoscroll
slow
fast
+/-
esc
set tempo
stop
-----------------------------------------------------------------------------
                     SONG OF STORMS – Legend of Zelda
-----------------------------------------------------------------------------
Tabbed by: John P.
Email: jrp12pro@aol.com

Tuning: Drop D

if the timing doesn't make sense try listening to the song for a bit

Guitar 1 - bass

e|-------------|------------|------------|------------|
B|-------------|------------|-lead-------|------------|
G|-------------|------------|--begins----|------------|
D|-------------|------------|---here-----|------------|
A|-------------|------------|------------|0-----1--0--|
D|-0--2--3--2--|0--2--3--2--|0--2--3--2--|---0--------|

e|-------------|------|
B|-------------|------|
G|-------------|------|
D|-------------|------|
A|-------------|1--0--|
D|-0--2--3--2--|------| repeat

Guitar 2 - Rhythm

-I think it sounds best to finger-pick this part

e|------------------------|------------------------|
B|---6-6--------10-10-----|---6-6--------10-10-----|
G|---7-7---9----10-10---9-|---7-7---9----10-10---9-|
D|---7-7—-9-----10-10—-9--|---7-7—-9-----10-10—-9--|
A|-5-----7----8-------7---|-5-----7----8-------7---|
D|------------------------|------------------------| repeat

lead begins after two bars of rhythm and bass

Guitar 3 - Lead

e|---------------------12~-13121312------|----------------------------------|
B|-------15~-------15~-------------13----|----------------------------------|
G|-----------------------------------14~-|-14-------12-14~--14-------12-----|
D|-12h15-----12h15-----------------------|----12-15------------12-15----14~-|
A|---------------------------------------|----------------------------------|
D|---------------------------------------|----------------------------------|

e|---------------------12~-13121312------|----------------------------------|
B|-------15~-------15~-------------13----|----------------------------------|
G|-----------------------------------14~-|-14-------12-14~--14--------------|
D|-12h15-----12h15-----------------------|----12-15------------12~----------|
A|---------------------------------------|----------------------------------|
D|---------------------------------------|----------------------------------|

that's it. all three parts repeat and increase tempo


************************************

| /   slide up
| \   slide down
| h   hammer-on
| p   pull-off
| ~   vibrato
| +   harmonic
| x   Mute note
| b   Bend
| pb  Pre-bend
| br  Bend release
| pbr Pre-bend release
| brb Bend release bend

************************************

            
            
Suggest correction
Creating personal tab
Creating personal tab
You can edit any tab online and save it as your Personal.

You can edit, replace or remove any tab part or add personal notes – all changes will be seen only by you.

Personal tabs can be accessed anytime from any device, even offline.
Learn more »
Give kudos to tab author, rate the tab!
1 2 3 4 5
comments
print report bad tab
guest
You may want to rate the tab now too:
select rating
Wanna post a correction for this tab? Suggest correction