Oops, an error
Loading. Please wait.

The Legend Of Zelda - The Wind Waker Theme tab

version 1
version 1

Whole song

Interactive

79,279 views 36 this week
6 commentsread comments
1 2 3 4 5
x 34
add to favorites
×
Save as Personal and add changes to this tab that will be seen only by you. Learn more ›
×
You can save this tab as Personal to edit and correct it or add notes. All changes will be seen only by you. Learn more »
launch autoscroll
font size
0
reset
how to read this tab
guitar tuner
edit
Autoscroll
slow
fast
+/-
esc
set tempo
stop
Author
Difficulty
Legend of Zelda: Wind Waker Theme

This song is played pretty fast except for the parts that have held notes. so i
hope you all enjoy this. it took my a pretty long time to figure out. the other
person that made this song had the right idea, but there were some parts he left
out....anyway please rate and comment on my tab, thanks! Rock on!! B)


[Sound of Wind Intro]

e|-8~~~10~~~8~~~-----|
B|-8~~~10~~~8~~~-8~~~|
G|-9~~~-9~~~9~~~-9~~~|
D|--------------10~~~|
A|-------------------|
E|-------------------|


[Earth God's Lyric Verse]

e|-------2-0------------------------------0-2--0--|
B|o----3-----3-2-3-0---2-3-0-2----3-0-2-3----3---o|
G|-2-2---------------0--2-----2-0-----------------|
D|------------------------------------------------|
A|o----------------------------------------------o|
E|------------------------------------------------|(x2)

e|-------2-0--------------------0-2-3-0------|
B|-----3----3-2-3-0--2--3-0-2-3--------2-3-3-|
G|-2-2-------------0--2----------------------|
D|-------------------------------------------|
A|-------------------------------------------|
E|-------------------------------------------|


[Wind God's Aria Chorus]

e|------------------------------------------------------------------|
B|-10-10---------------------10---------------------10-12-12--------|
G|------12-11-9-11~---------9-------12-----11~11-12----------12-9---|
D|-----------------12-11-12----12-12--12-12-------------------------|
A|------------------------------------------------------------------|
E|------------------------------------------------------------------|

e|------------------------------------------------------|
B|-10-10-------------------------------10---------------|
G|-------12-11---9-11-9-9-9~--------9-9--9---12------11~|
D|------------12-----------12-11-12--------11--12-12----|
A|------------------------------------------------------|
E|------------------------------------------------------|

e|--------------------------------------|
B|-----------------10-12----------------|
G|-11-9--9-------12-----11--11-9~9-11-9-|
D|-----11-12-9-12---------12------------|
A|--------------------------------------|
E|--------------------------------------|

e|----------------------------------------------------|
B|-10-10-------------------10~-----------10-12-12-----|
G|------12-11-9-11--------9---12-11~11-12--------12-9-|
D|----------------12-11-12----------------------------|
A|----------------------------------------------------|
E|----------------------------------------------------|

e|-----------------------------------------------------|
B|-10-10-----------------------------10----------------|
G|------12-11---9-11-9-9~--------9~9~---9---12------11~|
D|------------12---------12-11-12--------11----12-12---|
A|-----------------------------------------------------|
E|-----------------------------------------------------|

e|-------------------------------------------|
B|------------------10-12------------10------|
G|-11--9--9-------12-----11---11-9~9~--------|
D|------11-12-9-12---------12----------------|
A|-------------------------------------12~12~|
E|-------------------------------------------|


[Sound of Wind Intro]


[Earth God's Lyric Verse]


[Wind God's Aria Chorus]



************************************

| x           Dead note
| ~           held note
||o----o|(x2) play all of this in between the "o"s twice

************************************

            
            
Suggest correction
Creating personal tab
Creating personal tab
You can edit any tab online and save it as your Personal.

You can edit, replace or remove any tab part or add personal notes – all changes will be seen only by you.

Personal tabs can be accessed anytime from any device, even offline.
Learn more »
comments
print report bad tab
6 comments total. Showing first comments.
0 reply
ninja_cupcakes4 176 Jul 27, 2010 11:10 AM

btw, i forgot to mention that the section after wind god's aria is the sound of wind intro/outro. it's the same as the intro.

Sections:
Sound of Wind Intro
Earth God's Lyric Verse
Wind God's Aria Chorus
Sound of Wind Intro
Earth God's Lyric Verse
Wind God's Aria Chorus
Sound of Wind Intro/Outro

Enjoy!

0 reply
metalhead601 208 Jun 18, 2011 10:44 PM

I cant understand the wind gods aria. I'm not sure why.

0 reply
ninja_cupcakes4 176 Jun 21, 2011 03:51 PM

Well if you mean by the way it's tabbed, it could be that you may want to hear the rhythm of that part. it's a little fast, but the tuning is also in standard tuning. buut yeah. if you have any other questions, please ask..btw, thanks for the comment! B)

guest
You may want to rate the tab now too:
select rating
Wanna post a correction for this tab? Suggest correction