Oops, an error
Loading. Please wait.

The Legend Of Zelda - Zeldas Lullaby tab

version 2
version 2

Interactive

7,525 views 1 this week
1 commentread comment
1 2 3 4 5
x 4
add to favorites
×
Save as Personal and add changes to this tab that will be seen only by you. Learn more ›
×
You can save this tab as Personal to edit and correct it or add notes. All changes will be seen only by you. Learn more »
launch autoscroll
font size
0
reset
how to read this tab
guitar tuner
edit
Autoscroll
slow
fast
+/-
esc
set tempo
stop
Author
Difficulty
Zelda’s Lullaby
transcribed by Jastul
any questions my e-mail is jastul@hotmail.com
   Intro...  Bridge.....  Outro.............
E||-------------------------------------------|
B||-------------------------------------------|
G||----2------------2--------2-7~-5-3-2~------|
D||-4~---2~--0-2-4~---2~--4~------------4-2~--|
A||-------------------------------------------|
E||-------------------------------------------|

Version 2
   Intro...    Bridge.....    Outro.............
E||---------------------------------10~-8--------------|
B||-7~-10----------7~--10-----7~-10-------11-10~-7-----|
G||-------9~---7-9--------9~-----------------------9~--|
D||-~---~----------~-----------------------------------|
A||----------------------------------------------------|
E||----------------------------------------------------|

Play intro three times and then move onto rest of song and it should sound exactly like
does in the game when you play it (including two when you play it yourself on the
otherwise just play as shown). Once finished, repeat as many times as you want. The note 
on both versions is F#-A-E-D-E-F#-A-E-F#-A-D-C-A#-A-F#-E.

            
            
Suggest correction
Creating personal tab
Creating personal tab
You can edit any tab online and save it as your Personal.

You can edit, replace or remove any tab part or add personal notes – all changes will be seen only by you.

Personal tabs can be accessed anytime from any device, even offline.
Learn more »
comments
print report bad tab
1 comment total.
0 reply
hthomas23 10 May 22, 2007 10:46 AM

well the begining of the song you had it but i lost you there after the intro but it was alright but mayb i wasn't playin it rite laters

guest
You may want to rate the tab now too:
select rating
Wanna post a correction for this tab? Suggest correction