Oops, an error
Loading. Please wait.

The Legend Of Zelda - Zeldas Lullaby tab

version 1
version 1
78,276 views 33 this week
5 commentsread comments
1 2 3 4 5
x 23
add to favorites
×
Save as Personal and add changes to this tab that will be seen only by you. Learn more ›
×
You can save this tab as Personal to edit and correct it or add notes. All changes will be seen only by you. Learn more »
launch autoscroll
font size
0
reset
how to read this tab
guitar tuner
edit
Autoscroll
slow
fast
+/-
esc
set tempo
stop
Author
Unregistered
Nintendo - Zelda's Lullaby
Submitted By: DJ Mastabata G
EMail: djmastabatag@msn.com

E|--------------------6-4-------------------------------6-4--||
B|----4------4------4-----4----------4---------4------4------||
G|--5---3--5---3--5---------6-5-3--5---3-0-3-5---3--5--------||
D|-----------------------------------------------------------||
A|-----------------------------------------------------------||
E|-----------------------------------------------------------||

E|--11--11-9-8-9-8-----7-5-4-5-4------11-9-8-9-8----11--16||
B|-----------------9-------------4-5--------------9-------||
G|--------------------------------------------------------||
D|--------------------------------------------------------||
A|--------------------------------------------------------||
E|--------------------------------------------------------||

Nintendo - Zelda's Lullaby
Submitted By: DJ Mastabata G
EMail: djmastabatag@msn.com

really easy song, only use top 3 strings (G, B, E)
E|--------------------6-4-------------------------------6-4--||
B|----4------4------4-----4----------4---------4------4------||
G|--5---3--5---3--5---------6-5-3--5---3-0-3-5---3--5--------||
D|-----------------------------------------------------------||
A|-----------------------------------------------------------||
E|-----------------------------------------------------------||

E|--11--11-9-8-9-8-----7-5-4-5-4------11-9-8-9-8----11--16||
B|-----------------9-------------4-5--------------9-------||
G|--------------------------------------------------------||
D|--------------------------------------------------------||
A|--------------------------------------------------------||
E|--------------------------------------------------------||

          This is from the Nintendo Game
          The legend of Zelda
          ocarina of time
          
          Zelda's Lullaby
          E|-7--10-------7--10-----7---10---17---15—10-|
          B|------10----------10-----------------------|
          G|-------------------------------------------|
          D|-------------------------------------------|
          A|-------------------------------------------|
          E|-------------------------------------------|
          
          mookie
          pencil@tasmail.com

            
            
Suggest correction
Creating personal tab
Creating personal tab
You can edit any tab online and save it as your Personal.

You can edit, replace or remove any tab part or add personal notes – all changes will be seen only by you.

Personal tabs can be accessed anytime from any device, even offline.
Learn more »
comments
print report bad tab
5 comments total. Showing first comments.
0 reply
*kas 101 Jun 25, 2007 01:57 PM

The first and last one are perfect, but the ones in between are utter shit so I gave it 4/5

0 reply
Ian Noble. 10 Jan 10, 2008 05:04 PM

Almost perfect, one wrong note(hey, i'm picky), correct way is
below

E|--------------------6-4-------------------------------6-4-
B|----4------4------4-----4----------4---------4-
-----4-----
G|--5---3--5---3--5---------6-5-3--5---3-1-3-5---3--5-------

^

Only change is that 0 is now a 1, other then that, perfect tab, 5/5.

+1 reply
Ian Noble. 10 Jan 10, 2008 05:07 PM

Pfft, forgot to put the (tab) stuff.

E|--------------------6-4-------------------------------6-4-
B|----4------4------4-----4----------4---------4------4-----
G|--5---3--5---3--5---------6-5-3--5---3-1-3-5---3--5-------



there, sorry 'bout that, god bless.

guest
Wanna post a correction for this tab? Suggest correction