Oops, an error
Loading. Please wait.

The Legend Of Zelda Ocarina Of Time - Song Of Storms tab

version 10
version 10

Whole song

16,955 views 87 this week
4 commentsread comments
1 2 3 4 5
x 19
add to favorites
×
Save as Personal and add changes to this tab that will be seen only by you. Learn more ›
×
You can save this tab as Personal to edit and correct it or add notes. All changes will be seen only by you. Learn more »
launch autoscroll
font size
0
reset
how to read this tab
guitar tuner
edit
Autoscroll
slow
fast
+/-
esc
set tempo
stop
Author
Difficulty
Song of Storms - Ocarina of Time - Tabbed by NekoTheCat

e|--------10-----------------------10---------------12-------13-12-13-12-------------------|
B|-----------------------------------------------------------------------13-10-------------|
G|--7--10-------------------7--10----------------------------------------------------------|
D|-----------------------------------------------------------------------------------------|
A|-----------------------------------------------------------------------------------------|
E|-----------------------------------------------------------------------------------------|
    1           +           2           +           3           +           4           +

e|-----------------------------------------------------------------------------------------|
B|--10-------------8-10-----------------------------10-------------8-----------------------|
G|--------7-----10----------------------------------------7-----10---9---------------------|
D|-----------------------------------------------------------------------------------------|
A|-----------------------------------------------------------------------------------------|
E|-----------------------------------------------------------------------------------------|
    1           +           2           +           3           +           4           +

e|--------10-----------------------10---------------12-------13-12-13-12-------------------|
B|-----------------------------------------------------------------------13-10-------------|
G|--7--10-------------------7--10----------------------------------------------------------|
D|-----------------------------------------------------------------------------------------|
A|-----------------------------------------------------------------------------------------|
E|-----------------------------------------------------------------------------------------|
    1           +           2           +           3           +           4           +

e|-----------------------------------------------------------------------------------------|
B|--10-------------8-10-----------------------10-------------------------------------------|
G|--------7-----10----------------------------------7--------------------------------------|
D|-----------------------------------------------------------------------------------------|
A|-----------------------------------------------------------------------------------------|
E|-----------------------------------------------------------------------------------------|
    1           +           2           +           3           +           4           +

            
            
Suggest correction
Creating personal tab
Creating personal tab
You can edit any tab online and save it as your Personal.

You can edit, replace or remove any tab part or add personal notes – all changes will be seen only by you.

Personal tabs can be accessed anytime from any device, even offline.
Learn more »
comments
print report bad tab
4 comments total. Showing first comments.
+2 reply
tedder987 10 Aug 16, 2015 12:23 AM

It should be

|-------10------10--12-13121312-------
|------------------------------13--10-
|--7-10----7-10-----------------------
|-------------------------------------
|-------------------------------------
|-------------------------------------

+1 reply
5u6z3r0 10 Jan 13, 2016 07:46 AM

i only rated this as 4 star considering its not raining outside right now... disappointed.

0 reply
Ril3y 21 Oct 06, 2016 11:07 PM

Start on open D string to A on G string to D on B string. Repeat twice. That's if you're playing the beginning phrase

guest
You may want to rate the tab now too:
select rating
Wanna post a correction for this tab? Suggest correction