Oops, an error
Loading. Please wait.

The Legend Of Zelda Theme solo tab

version 1
version 1

Solo

Whole song

Interactive

5,809 views 147 this week
7 commentsread comments
1 2 3 4 5
x 12
add to favorites
×
Save as Personal and add changes to this tab that will be seen only by you. Learn more ›
×
You can save this tab as Personal to edit and correct it or add notes. All changes will be seen only by you. Learn more »
launch autoscroll
font size
0
reset
how to read this tab
guitar tuner
edit
Autoscroll
slow
fast
+/-
esc
set tempo
stop
Author
Difficulty
Main Theme – Legend of Zelda

For context, you can play along with the song:
https://www.youtube.com/watch?v=r4MhlyFwmrA


0:00
e|---------------------------------------------------------------------|
B|---------------------------------------------------------------------|
G|-3--3-3-3-3-3--1-3--3-3-3-3-3--1-3--3--3-3-3-------------------------|
D|-3--3-3-3-3-3--1-3--3-3-3-3-3--1-3--3--3-3-3-3-3-3--3-3-3--3-3-3--3--|
A|---------------------------------------------3-3-3--3-3-3--3-3-3--3--|
E|---------------------------------------------------------------------|

0:07
e|----------------------------------------------------------|
B|------------------------------9-11---11-11-9----9---------|
G|------------7-8-10---10-10-11----------------11----11-10--|
D|-8----8-8-10----------------------------------------------|
A|---8------------------------------------------------------|
E|----------------------------------------------------------|

0:13
e|-----------------------------------------------------------------------------|
B|-------------------------------------------------8--6------------------------|
G|-10--8-8-10-11---10-8-6--6-8-10---8-6-5-5-7-9--------------------------------|
D|-----------------------------------------------------------------------------|
A|------------------------------------------------------8-8-8--8-8-8--8-8-8--8-|
E|-----------------------------------------------------------------------------|

0:21
e|------------------------------------9--8----------6-5---------6-5----|
B|------------------------------9-11--------9--6-7------6--6-7------6--|
G|------------7-8-10---10-10-11----------------------------------------|
D|-8----8-8-10---------------------------------------------------------|
A|---8-----------------------------------------------------------------|
E|---------------------------------------------------------------------|

0:34
e|-------------------------------------------------------------|
B|-------7-6-----------------------8--6------------------------|
G|-7-8-------6-----------------9-------------------------------|
D|-----------------8--10-11-12---------------------------------|
A|--------------------------------------8-8-8--8-8-8--8-8-8--8-|
E|-------------------------------------------------------------|

0:42
e|----------------------------------------------------------|
B|------------------------------9-11---11-11-9----9---------|
G|------------7-8-10---10-10-11----------------11----11-10--|
D|-8----8-8-10----------------------------------------------|
A|---8------------------------------------------------------|
E|----------------------------------------------------------|

0:48
e|-----------------------------------------------------------------------------|
B|-------------------------------------------------8--6------------------------|
G|-10--8-8-10-11---10-8-6--6-8-10---8-6-5-5-7-9--------------------------------|
D|-----------------------------------------------------------------------------|
A|------------------------------------------------------8-8-8--8-8-8--8-8-8--8-|
E|-----------------------------------------------------------------------------|

0:56
e|------------------------------------9--8----------6-5---------6-5----|
B|------------------------------9-11--------9--6-7------6--6-7------6--|
G|------------7-8-10---10-10-11----------------------------------------|
D|-8----8-8-10---------------------------------------------------------|
A|---8-----------------------------------------------------------------|
E|---------------------------------------------------------------------|

1:09
e|-------------------------------------------------------------|
B|-------7-6-----------------------8--6------------------------|
G|-7-8-------6-----------------9-------------------------------|
D|-----------------8--10-11-12---------------------------------|
A|--------------------------------------8-8-8--8-8-8--8-8-8--8-|
E|-------------------------------------------------------------|

            
            
Suggest correction
Creating personal tab
Creating personal tab
You can edit any tab online and save it as your Personal.

You can edit, replace or remove any tab part or add personal notes – all changes will be seen only by you.

Personal tabs can be accessed anytime from any device, even offline.
Learn more »
comments
print report bad tab
7 comments total. Showing first comments.
0 reply
izdeb041 186 Mar 06, 2017 04:36 PM

Thank you SO much. I've been searching for something like this.

+1 reply
xspeke 10 Mar 19, 2017 04:15 PM

best tab of the song on the site, definitely!

0 reply
izdeb041 186 Mar 29, 2017 06:22 PM

The beginning of this version reminds me of Smoke On The Water a little bit.

guest
You may want to rate the tab now too:
select rating
Wanna post a correction for this tab? Suggest correction