Oops, an error
Loading. Please wait.

The Witcher - Vizima Outskirts solo tab

1,075 views 1 this week
2 commentsread comments
1 2 3 4 5
2 more votes to show rating
add to favorites
×
Save as Personal and add changes to this tab that will be seen only by you. Learn more ›
×
You can save this tab as Personal to edit and correct it or add notes. All changes will be seen only by you. Learn more »
launch autoscroll
font size
0
reset
how to read this tab
guitar tuner
edit
Autoscroll
slow
fast
+/-
esc
set tempo
stop
-------------------------------------------------------------------------------
                             Vizima Outskirts (The Dike) - The Witcher 1
-------------------------------------------------------------------------------
Tabbed by: SynysterSpencer

The song I am tabbing is https://www.youtube.com/watch?v=G3cqBVgxca4. It's from the first Witcher game. 
The part I am tabbing is from 0:45 to 1:40 in the video. The timing might not be perfectly described in this 
tab, so listen to the song in order to get the timing down.I figured this out by ear so if you have anything 
better, feel free to provide feedback.

Tuning: EADGBE

e|----------------10---------------------------------------------------------|
B|--12~--13~--12~----10~-----------------------------------------------------|
G|-----------------------11-11/12~--12/14~-----------------------------------|
D|---------------------------------------------------------------------------|
A|---------------------------------------------------------------------------|
E|---------------------------------------------------------------------------|

e|----------------10--10h12h14~--15-14~--10~---------------------------------|
B|--12~--13~--12~------------------------------------------------------------|
G|---------------------------------------------------------------------------|
D|---------------------------------------------------------------------------|
A|---------------------------------------------------------------------------|
E|---------------------------------------------------------------------------|

e|---------------------------------------------------------------------------|
B|--12~---10--------------12~--12/14--10~------------------------------------|
G|------------11--11/14~-----------------------------------------------------|
D|---------------------------------------------------------------------------|
A|---------------------------------------------------------------------------|
E|---------------------------------------------------------------------------|

e|-------------------------------10------------------------------------------|
B|-----12~--10--14--12~--14--10------14--12--10--12~--14~--12~---------------|
G|--11-----------------------------------------------------------------------|
D|---------------------------------------------------------------------------|
A|---------------------------------------------------------------------------|
E|---------------------------------------------------------------------------|

By the way, it would be pretty cool if you took the time to rate it, or even comment on it, 
just so I can get an idea of how good this tab is.


************************************

| /   slide up
| \   slide down
| h   hammer-on
| p   pull-off
| ~   vibrato
| +   harmonic
| x   Mute note
| b   Bend
| pb  Pre-bend
| br  Bend release
| pbr Pre-bend release
| brb Bend release bend

************************************

            
            
Suggest correction
Creating personal tab
Creating personal tab
You can edit any tab online and save it as your Personal.

You can edit, replace or remove any tab part or add personal notes – all changes will be seen only by you.

Personal tabs can be accessed anytime from any device, even offline.
Learn more »
Give kudos to tab author, rate the tab!
1 2 3 4 5
comments
print report bad tab
2 comments total.
0 reply
mrgokules1 10 Jun 01, 2017 09:07 AM

Near the end, all elevens on B string should be changed to 10s. It sounds more correct then.

0 reply
SynysterSpencer 77 Jun 02, 2017 11:47 PM

You're right, idk what I was thinking. About to change it lol, thanks!

guest
You may want to rate the tab now too:
select rating
Wanna post a correction for this tab? Suggest correction