Oops, an error
Loading. Please wait.

The Witcher 3 Wild Hunt - The Wolven Storm Priscillas Song tab

version 2
version 2

Whole song

Interactive

13,528 views 132 this week
3 commentsread comments
1 2 3 4 5
x 11
add to favorites
×
Save as Personal and add changes to this tab that will be seen only by you. Learn more ›
×
You can save this tab as Personal to edit and correct it or add notes. All changes will be seen only by you. Learn more »
launch autoscroll
font size
0
reset
how to read this tab
guitar tuner
edit
Autoscroll
slow
fast
+/-
esc
set tempo
stop
Author
Difficulty
*Hi! I'm completely in love with The Witcher 3, so when I heard "The Wolven Storm", I decided to write tabs 
for this beautiful song. It's a first tab I've ever made, and it's arranged by ear, so it could be not perfect
but I hope you'll like it. Enjoy ^^.
 
*The Witcher 3: Wild Hunt - "The Wolven Storm"

*Arranged by grimchuck

[Intro]
   E E E E E E E E E E E E Q  Q    E E E E E E E E Q Q Q  E E
e|-1-0-1-0-1-0-1-0-1-------------|-1-0-1-0-1-0-1-0-1---3--1-0-|
B|---------3---------------------|---------3------------------|
G|-----2-----------2-------------|-----2-------------2-0--2---|
D|-0-----------------3-2-3-0--3--|----------------------------|
A|-------------------------------|-1---------------1----------|
E|-------------------------------|----------------------------|

   E E E E E E E E E E E E Q  Q    E E E E E E E E Q Q  H
e|-1-0-1-0-1-0-1-0-1-------------|-1-0-1-0-1-0-1-0-1----0----|
B|---------3---------------------|---------3------------3----|
G|-----2-----------2-------------|-----2-------------2--0----|
D|-0-----------------3-2-3-0--3--|----------------------2----|
A|-------------------------------|-1---------------1----3----|
E|-------------------------------|---------------------------|

[Verse 1]
   E E E E E E E E E E E Q Q E   E E E Q E E Q E E E E Q Q
e|-5-5-----5-3-----0-1-0-1-0---|-5-5---8-3-3-5-3---0-1-3-5-|
B|-------3-------3---------2---|---------------------------|
G|-----2-------2-------------2-|-----2-----------2---------|
D|---0-------0-------0-----2---|---0-----0-----0-----------|
A|-----------------------------|-----------------------0---|
E|-----------------------------|---------------------------|

   E E E E E E Q E E E E E E Q   E E E E E E E E E E Q Q
e|---1-0-1-0-------1-0-1-3---1-|-1-0-1-0-1-0-1-0-3-1-0-1--|
B|-------------3---------------|-3-3-3-3-3-3-3-3-3-3-3-3--|
G|-----------0-------------2---|--------------------------|
D|-----------------------------|-0-------0-------0--------|
A|-1-------1-------------0-----|--------------------------|
E|---------------3-------------|--------------------------|

[Refrain]
   E E E E E E E E E E E E E E E E   E E E E Q E E E E E E E E Q
e|---0-1---------0-1-3-5-----------|---0-1-0-1-3---1-0-1----------|
B|-3-------3---3-----------3-------|-3---------------------3------|
G|-------2---2-----------2---2---2-|-------------2-------2---2----|
D|-----0-------0-------0-------0---|------------------------------|
A|---------------------------------|-----1-----1-------1-------3--|
E|---------------------------------|------------------------------|

   E E E E E E E E E E E E Q E E Q   E E E E E E Q E E E E H
e|---0-1---------0-1-3-5---8-3---5-|-3-----0-1---3-3-1-0-1-0----|
B|-3-------3---3-------------------|-----3----------------------|
G|-------2---2-----------2-----2---|---2-------2----------------|
D|-----0-------0-------0-----0-----|----------------------------|
A|---------------------------------|-1-------1-----3-------3----|
E|---------------------------------|----------------------------|

[Verse 2]
   E E E E E E E E E E E Q Q E   E E E Q E E Q E E E E Q Q
e|-5-5-----5-3-----0-1-0-1-0---|-5-5---8-3-3-5-3---0-1-3-5-|
B|-------3-------3---------2---|---------------------------|
G|-----2-------2-------------2-|-----2-----------2---------|
D|---0-------0-------0-----2---|---0-----0-----0-----------|
A|-----------------------------|-----------------------0---|
E|-----------------------------|---------------------------|

   E E E E E E Q E E E E E E Q   E E E E E E E E E E Q Q
e|---1-0-1-0-------1-0-1-3---1-|---1-0-1-0-1-0-1-3-1-0-1----|
B|-------------3---------------|---3-3-3-3-3-3-3-3-3-3-3----|
G|-----------0-------------2---|----------------------------|
D|-----------------------------|-0-------0-------0-----0----|
A|-1-------1-------------0-----|----------------------------|
E|---------------3-------------|----------------------------|

[Refrain]
   E E E E E E E E E E E E E E E E   E E E E Q E E E E E E E E Q
e|---0-1---------0-1-3-5-----------|---0-1-0-1-3---1-0-1----------|
B|-3-------3---3-----------3-------|-3---------------------3------|
G|-------2---2-----------2---2---2-|-------------2-------2---2----|
D|-----0-------0-------0-------0---|------------------------------|
A|---------------------------------|-----1-----1-------1-------3--|
E|---------------------------------|------------------------------|

   E E E E E E E E E E E E Q E E Q   E E E E E E Q E E E E H
e|---0-1---------0-1-3-5---8-3---5-|-3-----0-1---3-3-1-0-1-0-|
B|-3-------3---3-------------------|-----3-------------------|
G|-------2---2-----------2-----2---|---2-------2-------------|
D|-----0-------0-------0-----0-----|-------------------------|
A|---------------------------------|-1-------1-----3-------3-|
E|---------------------------------|-------------------------|

[Verse 3]
   E E E E E E E E E E E Q Q E   E E E Q E E Q E E E E Q Q
e|-5-5-----5-3-----0-1-0-1-0---|-5-5---8-3-3-5-3---0-1-3-5-|
B|-------3-------3---------2---|---------------------------|
G|-----2-------2-------------2-|-----2-----------2---------|
D|---0-------0-------0-----2---|---0-----0-----0-----------|
A|-----------------------------|-----------------------0---|
E|-----------------------------|---------------------------|

   E E E E E E Q E E E E E E Q   E E E E E E E E E E Q Q
e|---1-0-1-0-------1-0-1-3---1-|---1-0-1-0-1-0-1-3-1-0-1--|
B|-------------3---------------|---3-3-3-3-3-3-3-3-3-3-3--|
G|-----------0-------------2---|--------------------------|
D|-----------------------------|-0-------0-------0-----0--|
A|-1-------1-------------0-----|--------------------------|
E|---------------3-------------|--------------------------|

[Refrain]
   E E E E E E E E E E E E E E E E   E E E E Q E E E E E E E E Q
e|---0-1---------0-1-3-5-----------|---0-1-0-1-3---1-0-1----------|
B|-3-------3---3-----------3-------|-3---------------------3------|
G|-------2---2-----------2---2---2-|-------------2-------2---2----|
D|-----0-------0-------0-------0---|------------------------------|
A|---------------------------------|-----1-----1-------1-------3--|
E|---------------------------------|------------------------------|

   E E E E E E E E E E E E Q E E Q   E E E E E E Q E E E E H
e|---0-1---------0-1-3-5---8-3---5-|-3-----0-1---3-3-1-0-1-0-|
B|-3-------3---3-------------------|-----3-------------------|
G|-------2---2-----------2-----2---|---2-------2-------------|
D|-----0-------0-------0-----0-----|-------------------------|
A|---------------------------------|-1-------1-----3-------3-|
E|---------------------------------|-------------------------|

[Outro]
   E E E E E E E E E E E E Q  Q   E E E E E E E E Q Q Q  E E
e|-1-0-1-0-1-0-1-0-1------------|-1-0-1-0-1-0-1-0-1---3--1-0-|
B|---------3--------------------|---------3------------------|
G|-----2-----------2------------|-----2-------------2-0--2---|
D|-0-----------------3-2-3-0--3-|----------------------------|
A|------------------------------|-1---------------1----------|
E|------------------------------|----------------------------|

   E E E E E E E E E E E E Q  Q   E E E E E E E E Q Q  H  W
e|-1-0-1-0-1-0-1-0-1------------|-1-0-1-0-1-0-1-0-1----0--1----|
B|---------3--------------------|---------3------------3--3----|
G|-----2-----------2------------|-----2-------------2--0--2----|
D|-0-----------------3-2-3-0--3-|----------------------2--0----|
A|------------------------------|-1---------------1----3-------|
E|------------------------------|------------------------------|


****************************

W - whole note   (1)
H - half note    (1/2)
Q - quarter note (1/4)
E - 8th note     (1/8)

****************************

            
            
Suggest correction
Creating personal tab
Creating personal tab
You can edit any tab online and save it as your Personal.

You can edit, replace or remove any tab part or add personal notes – all changes will be seen only by you.

Personal tabs can be accessed anytime from any device, even offline.
Learn more »
comments
print report bad tab
3 comments total.
0 reply
SG_dave 30 Jul 22, 2015 12:02 PM, edited at 04:02 pm

Very close.

I didn't realise you'd included the vocal track at first, but with that in mind I can work with this. Where the vocals are though it seems to ba bit muddled on the timing. Might wanna try and see about spacing it a little better to show where the vocals syncopate with the guitar.

0 reply
momo63218001 10 Nov 19, 2016 09:55 PM

Agreed with SG Dave,

I had a hard time following your tab but managed to figure out the bars clearly by hearing.

Maybe some of these (||||||) would help to distinguish the timing.

GOOD JOB THO!!! KEEP GOING

0 reply
momo63218001 10 Nov 19, 2016 09:55 PM, edited on November 20 2016, 02:56 am

_

guest
You may want to rate the tab now too:
select rating
Wanna post a correction for this tab? Suggest correction