Oops, an error
Loading. Please wait.

Undertale - Dummy tab

version 1
version 1

Whole song

  • A fingerstyle arrangement of the song Dummy from UNDERTALE.

Interactive

472 views 36 this week
no commentswrite comment
1 2 3 4 5
3 more votes to show rating
add to favorites
×
Save as Personal and add changes to this tab that will be seen only by you. Learn more ›
×
You can save this tab as Personal to edit and correct it or add notes. All changes will be seen only by you. Learn more »
launch autoscroll
font size
0
reset
how to read this tab
guitar tuner
edit
Autoscroll
slow
fast
+/-
esc
set tempo
stop
Author
Difficulty
intermediate
About this tab version
A fingerstyle arrangement of the song Dummy from UNDERTALE. Was this info helpful? Yes No
Artist: Toby Fox
Song: Dummy!
Arrenged By John Lee

     E  E  E  E  E  S E  S E     E  E  E  E  E  S E  S E     E  E  E  E  E  S E  S E   
e|----------------------0-4--|------------------------7--|----------------------0-4--|
B|-----1--3-----1--3-4-------|-----1--3-----1--3-4--8----|-----1--3-----1--3-4-------|
G|--2--------2---------------|--2--------2---------------|--2--------2---------------|
D|---------------------------|---------------------------|---------------------------|
A|---------------------------|---------------------------|---------------------------|
E|---------------------------|---------------------------|---------------------------|

    E  E  E  E  E  E  E  E       S S E  E  E  E  S E  S E     E  S E  S E  E  S E  S E   
e|---------------------------|-----------------------0-4--|----------0-4----------0-4--|
B|-----1-----0---------------|------1--3-----1--3-4-------|--1--3-4-------1--3-4-------|
G|--2-----1--------3-----2--*|--2---------2---------------|----------------------------|
D|--------------5-----4-----*|----------------------------|----------------------------|
A|---------------------------|----0----0--0---------------|----------------------------|
E|---------------------------|---------------0--0----0----|--0--0----0----0--0----0----|

    S S E  E  E  E  S E  S E     E  S E  S E  E  S E  S E     S S E  E  E  E  S E  S E   
e|-------------------------7--|------------7------------7--|-----------------------0-4--|
B|------1--3-----1--3-4--8----|--1--3-4--8----1--3-4--8----|------1--3-----1--3-4-------|
G|--2---------2---------------|----------------------------|--2---------2---------------|
D|----------------------------|----------------------------|----------------------------|
A|----0----0--0---------------|----------------------------|----0----0--0---------------|
E|---------------0--0----0----|--0--0----0----0--0----0----|---------------0--0----0----|

    E  S E  S E  E  S E  S E     S S E  E  E  E  S E  S E     S S E  E  E  S E  S Q     
e|----------0-4----------0-4--|-----------------------0-4--|------------1--0-1--0-4----|
B|--1--3-4-------1--3-4-------|------1--3-----1--3-4-------|------1--3-----------------|
G|----------------------------|--2---------2---------------|--2------------------------|
D|----------------------------|----------------------------|----0----0-----------------|
A|----------------------------|----0----0--0---------------|---------------------------|
E|--0--0----0----0--0----0----|---------------0--0----0----|---------------------------|

    S S E  E  E  S S E  S S E     S S S S S S S S S S S E  S S T T    E  E  E  E  E  E  E  E   
e|--5--------------0-----------|------------------------5--3-------|--------------------1-----|
B|----------------------3-1----|----4-3-1-3-4-----1----------4-3-1-|--------0-----1-----------|
G|--------------------------2--|--------------0-2---2-0------------|--2-----------------------|
D|-----------------------------|-----------------------------------|--------------------------|
A|--0-0------------------------|------------------0---0----0-------|--0--0-----2-----3-----0--|
E|------3--2--1--0---0--0---0--|--0---0-----0----------------------|--------------------------|

    E  E  S S E  S S S E  S S S    E  E  S S E  E  S E  S S S    E  S E  S S S E  S E  S S S  
e|--0-----5------4-1---0--1-0-1-|--0--------------------1-0-1-|----------1-0-1---------1-0-1-|
B|------------------------------|-----1---------1----0--------|--1----0--------1----0--------|
G|-----2------2-----------------|--------2---------2----------|-----2-------------2----------|
D|--0--0----0-------------------|------------2----------------|------------------------------|
A|------------------------------|--0--0----0------------------|------------------------------|
E|---------------0---0----0-----|---------------0--0----0-----|--0--0----0-----0--0----0-----|

    E  E  S S E  E  S E  S S S    E  S E  S S S E  S E  S S S    E  E  S S E  E  S E  S S S  
e|--0--------------------1-0-1-|----------1-0-1---------1-0-1-|--0--------------------1-0-1-|
B|-----1---------1--3-0--------|--1--3-0--------1--3-0--------|-----1---------1----0--------|
G|--------2--------------------|------------------------------|--------2---------2----------|
D|------------2----------------|------------------------------|------------2----------------|
A|--0--0----0------------------|------------------------------|--0--0----0------------------|
E|---------------0--0----0-----|--0--0----0-----0--0----0-----|---------------0--0----0-----|

    E  S E  S S S E  S E  S S S    E  E  S S E  S S S E  S S S    S S E  E  E  S E  Q    S  
e|----------1-0-1---------1-0-1-|--0--5--0---------------------|---------------------------|
B|--1----0--------1----0--------|------------1--3-1---3----1-3-|--4-3-1--------------------|
G|-----2-------------2----------|------------------------------|---------2-----0-1--2----L-|
D|------------------------------|------------------------------|--0---------0--------------|
A|------------------------------|--0--0----0-------------------|--------------------0----L-|
E|--0--0----0-----0--0----0-----|---------------0---0----0-----|---------------0-4---------|

     S S E  E  E  S S E  E  E     S S E  S S E  S S E  E  E     S E  E  S E  S E  E  S E   
e|-----------------------------|-----------------------------|------------5------------5--|
B|---4-3-1--------4-3-1--------|--4-3-1--4-3-1--4-3-1--------|----------------------------|
G|*---------2------------2-----|-----------------------2-----|--0-1--2-------0-1--2-------|
D|*------------2------------2--|--------------------------2--|----------------------------|
A|-----------------------------|-----------------------------|--0----0--0----0----0--0----|
E|---1---------1--1---------1--|--1------1------1---------1--|----------------------------|

    S S S S S S S S S E  E.  E     S S S S S S E  S S S S S S E     T T T T T E  S E  H        T  
e|------------------------------|--------------------------------|-------------------------------|
B|------------------------------|--4-3-1-0---1-0--4-3-1-0---1-0--|-------------------------------|
G|--0-0-1---2-------0-1--2---L--|----------2--------------2------|-------------------------------|
D|--------------2-2-------------|--------------------------------|--7-6-5-4-3-2--0----2--------L-|
A|--0-----0---0-----0----0------|--------------------------------|-----------------3-------------|
E|------------------------------|--1-----------1--1-----------1--|-------------------------------|

    E  S S S S E  E  S E  S E     E  S S S S E  S E  E.  S S      E  E  E  E  E  S E  E  S  
e|------------------------0-4--|------------------------------|---------------------------|
B|-----1---3------1--3-4-------|-----1---3--------------------|---------------------------|
G|--2----------2---------------|--2----------2--0-1--2-----L-*|--0--1--2-----0--1-2-----0-|
D|-----------------------------|-----------------------------*|---------------------------|
A|--0----0---0----0----0--0----|--0----0---0----0----0--------|---------------------------|
E|-----------------------------|------------------------------|---------------------------|

    S. T E  E  E  S E  E  E.     E  E  E  E  E  S E  E  S    S. T E  E  E  S E  S S S E   
e|----------------------------|---------------------------|---------------------------5--|
B|----------------------------|---------------------------|------------------------------|
G|--L--0-1--2-----0-1--2------|--0--1--2-----0--1-2-----0-|--L--0-1--2-----0-1--2--------|
D|-------------2--------------|---------------------------|-------------2----------------|
A|----------------------------|---------------------------|------------------------------|
E|----------------------------|---------------------------|------------------------------|

    E  E  E  E  E  S E  E  S    S. T E  E  E  S E  E  E.     E  E  E  E  E  S E  E  S  
e|--5------------------------|--5-------------------------|--5------------------------|
B|---------------------------|----------------------------|---------------------------|
G|--0--1--2-----0--1-2-----0-|--L--0-1--2-----0-1--2------|--0--1--2-----0--1-2-----0-|
D|---------------------------|-------------2--------------|---------------------------|
A|---------------------------|----------------------------|---------------------------|
E|--3------------------------|--3-------------------------|--3------------------------|

    S. T E  E  E  S E  E  S E     E  E  E  E  E  S E  S S S    S. T E  E  E  S S S E  S E   
e|--5--------------------------|-----1--3--------1-3------6-|--L--6-5--3--1----1---3-------|
B|-----------------------------|--3-----------3-------------|----------------3-------------|
G|--L--0-1--2-----0-1--2-------|--0-------------------------|------------------------------|
D|-------------2---------------|----------------------------|------------------------------|
A|-----------------------------|----------------------------|------------------------------|
E|--3--------------------------|--3--------3------------3---|--3----------3-------------3--|

    E  E  E  E  E  S E  S S S    S. T E  E  E  S S S E  S E     E  E  E  E  E  S E  S S S  
e|-----1--3--------1-3------6-|--L--6-5--3--1----1---3-------|-----1--3--------1-3------6-|
B|--3-----------3-------------|----------------3-------------|--3-----------3-------------|
G|--0-------------------------|------------------------------|--0-------------------------|
D|----------------------------|------------------------------|----------------------------|
A|----------------------------|------------------------------|----------------------------|
E|--3--------3------------3---|--3----------3-------------3--|--3--------3------------3---|

    S. T E  E  E  S S S E  S E     E  E  E  E  E  S E  S S S    S. T E  E  E  S S S E  S E   
e|--L--6-5--3--1----1---3-------|-----1--3--------1-3------6-|--L--6-5--3--1----1---3-------|
B|----------------3-------------|--3-----------3-------------|----------------3-------------|
G|------------------------------|--0-------------------------|------------------------------|
D|------------------------------|----------------------------|------------------------------|
A|------------------------------|----------------------------|------------------------------|
E|--3----------3-------------3--|--3--------3------------3---|--3----------3-------------3--|

    S S E  E  E  S S E  S S E     S S S S S S S S S S S E  S S T T    E  E  E  E  E  E  E  E   
e|--5--------------0-----------|------------------------5--3-------|--------------------1-----|
B|----------------------3-1----|----4-3-1-3-4-----1----------4-3-1-|--------0-----1-----------|
G|--------------------------2--|--------------0-2---2-0------------|--2-----------------------|
D|-----------------------------|-----------------------------------|--------------------------|
A|--0-0------------------------|------------------0---0----0-------|--0--0-----2-----3-----0--|
E|------3--2--1--0---0--0---0--|--0---0-----0----------------------|--------------------------|

    E  E  S S E  S S S E  S S S    E  E  S S E  E  S E  S S S    E  S E  S S S E  S E  S S S  
e|--0-----5------4-1---0--1-0-1-|--0--------------------1-0-1-|----------1-0-1---------1-0-1-|
B|------------------------------|-----1---------1----0--------|--1----0--------1----0--------|
G|-----2------2-----------------|--------2---------2----------|-----2-------------2----------|
D|--0--0----0-------------------|------------2----------------|------------------------------|
A|------------------------------|--0--0----0------------------|------------------------------|
E|---------------0---0----0-----|---------------0--0----0-----|--0--0----0-----0--0----0-----|

    E  E  S S E  E  S E  S S S    E  S E  S S S E  S E  S S S    E  E  S S E  E  S E  S S S  
e|--0--------------------1-0-1-|----------1-0-1---------1-0-1-|--0--------------------1-0-1-|
B|-----1---------1--3-0--------|--1--3-0--------1--3-0--------|-----1---------1----0--------|
G|--------2--------------------|------------------------------|--------2---------2----------|
D|------------2----------------|------------------------------|------------2----------------|
A|--0--0----0------------------|------------------------------|--0--0----0------------------|
E|---------------0--0----0-----|--0--0----0-----0--0----0-----|---------------0--0----0-----|

    E  S E  S S S E  S E  S S S    E  E  S S E  S S S E  S S S    S S E  E  E  S E  Q    S  
e|----------1-0-1---------1-0-1-|--0--5--0---------------------|---------------------------|
B|--1----0--------1----0--------|------------1--3-1---3----1-3-|--4-3-1--------------------|
G|-----2-------------2----------|------------------------------|---------2-----0-1--2----L-|
D|------------------------------|------------------------------|--0---------0--------------|
A|------------------------------|--0--0----0-------------------|--------------------0----L-|
E|--0--0----0-----0--0----0-----|---------------0---0----0-----|---------------0-4---------|

    E  E  E  E  T E  T T S E  E     S S E  E  E  T E  T T S E  E     S S S S S S S S S S S S S S S S  
e|--------0--2--3-4----L-2----0--|---------0--2--3-4----L-2----4--|--5-0-----------------------------|
B|-----1-------------------------|------1-------------------------|------1---1-----5-4-0-------------|
G|--2----------------------------|--2-2---------------------------|--------2---2---------------------|
D|-----2-----2-------2--------2--|------2-----2-------2--------2--|--0-----------2-------4---4-------|
A|--0-----------0----------------|--0------------0----------------|------------------------6---6-2-6-|
E|--------0----------------0-----|---------0----------------0-----|----------------------------------|

    S S E  E  E  E  E  Q       E  E  E  E  T E  T T S E  E     S S E  E  E  T E  T T S E  E   
e|--------------------------|--------0--2--3-4----L-2----0--|---------0--2--3-4----L-2----4--|
B|--------------------------|-----1-------------------------|------1-------------------------|
G|--2-2-1-----1--2----------|--2----------------------------|--2-2---------------------------|
D|---------4--------2-------|-----2-----2-------2--------2--|------2-----2-------2--------2--|
A|---------------------0----|--0-----------0----------------|--0------------0----------------|
E|--------------------------|--------0----------------0-----|---------0----------------0-----|

    S S S S S S S S S S S S S S S S    S S E  E  E  E  E  Q              
e|--5-0-----------------------------|--------------------------|-------|
B|------1---1-----5-4-0-------------|--------------------------|-------|
G|--------2---2---------------------|--2-2-1-----1--2-----2----|-------|
D|--0-----------2-------4---4-------|---------4--------2-------|-------|
A|------------------------6---6-2-6-|--------------------------|-------|
E|----------------------------------|--------------------------|-------|



************************************

| *  Natural harmonic
| L  

************************************

            
            
Suggest correction
Creating personal tab
Creating personal tab
You can edit any tab online and save it as your Personal.

You can edit, replace or remove any tab part or add personal notes – all changes will be seen only by you.

Personal tabs can be accessed anytime from any device, even offline.
Learn more »
Give kudos to tab author, rate the tab!
1 2 3 4 5
comments
print report bad tab
guest
You may want to rate the tab now too:
select rating
Wanna post a correction for this tab? Suggest correction