Oops, an error
Loading. Please wait.

Undertale - His Theme tab

version 2
version 2

Whole song

Interactive

10,066 views 57 this week
3 commentsread comments
1 2 3 4 5
x 11
add to favorites
×
Save as Personal and add changes to this tab that will be seen only by you. Learn more ›
×
You can save this tab as Personal to edit and correct it or add notes. All changes will be seen only by you. Learn more »
launch autoscroll
font size
0
reset
how to read this tab
guitar tuner
edit
Autoscroll
slow
fast
+/-
esc
set tempo
stop
Author
Difficulty
Unregistered
-------------------------------------------------------------------------------
                             His Theme - Undertale
-------------------------------------------------------------------------------

   E                             F# 
e|--------------|--------------|--------------|--------------|
B|-----2--------|--------------|--------------|--------------|
G|--------4-----|--3----3---4--|--------4-----|--3----3---4--|
D|--4--------4--|--------------|-----4-----4--|--------------|
A|--------------|--------------|--------------|--------------|
E|--------------|--------------|--------------|--------------|

   G#m                              B
e|--------------|--------------|--------------|--------------|
B|-----2--------|--------------|-----------4--|--2--------2--|
G|--------4-----|--3----3---4--|--------4-----|-------4------|
D|--4--------4--|--------------|-----4--------|--------------|
A|--------------|--------------|--------------|--------------|
E|--------------|--------------|--------------|--------------|

The Db (A4) is played almost like a pickup note, to keep the rhythm going.

If you want, you can put a capo on the second fret, and play an open B (it makes the fingering a bit easier.)

            
            
Suggest correction
Creating personal tab
Creating personal tab
You can edit any tab online and save it as your Personal.

You can edit, replace or remove any tab part or add personal notes – all changes will be seen only by you.

Personal tabs can be accessed anytime from any device, even offline.
Learn more »
comments
print report bad tab
3 comments total.
+1 reply
nocturnalextravegant 10 Jan 29, 2016 05:00 AM

Thank you so much for the tab!! I had a hard time looking for accurate ones;;

0 reply
DarkInferno13 10 Apr 10, 2016 02:09 PM

I find G4 works better than A4, but maybe that's just me, good tab otherwise though.

0 reply
qibli 10 Oct 15, 2017 12:55 AM

This is the great! Most accurate I could find as well

guest
Wanna post a correction for this tab? Suggest correction