Oops, an error
Loading. Please wait.

Undertale - Home intro tab

version 1
version 1

Intro

Whole song

  • A fingerstyle arrangement of the song Home from UNDERTALE.

Interactive

55,705 views 441 this week
5 commentsread comments
1 2 3 4 5
x 84
add to favorites
×
Save as Personal and add changes to this tab that will be seen only by you. Learn more ›
×
You can save this tab as Personal to edit and correct it or add notes. All changes will be seen only by you. Learn more »
launch autoscroll
font size
0
reset
how to read this tab
guitar tuner
edit
Autoscroll
slow
fast
+/-
esc
set tempo
stop
Author
-------------------------------------------------------------------------------
                             Home - Undertale
-------------------------------------------------------------------------------
Tabbed by: Katie Wright
E-mail:

This tab is based off the tune home from the game Undertale. This is only the
introduction but it also works throughout the whole song.

Tuning: STANDARD

e|---------------------------------0-----------------------------------0-----|
B|---------0-------0----------------------0----------0-------0---------------|
G|-------2------2-------------2--------2----------2-------2----------2-------|
D|-----2------2------------2--------2----------2-------2----------2----------|
A|---0------------------4-------------------3--------------------------------|
E|---------------------------------------------------------------------------|

e|---------0------------------------------------------------------0----------|
B|----------------------0-------0-----------0-------0---------------------0--|
G|------2------------2-------2-----------2-------2------------2--------2-----|
D|---2------------2-------2-----------2-------2------------2--------2--------|
A|-------------0------------------4--------------------3---------------------|
E|---------------------------------------------------------------------------|

e|---5---4---0---------------------------------------------------------------|
B|---------------------0-----------------0--------0-----------0-------0------|
G|-----------------2------2-----------2--------2-----------2-------2---------|
D|---------------------------------2-------2------------2-------2------------|
A|-----------------------------0--------------------4------------------------|
E|---------------------------------------------------------------------------|

e|----------------0--------------------------0-------------------------------|
B|------------0------0--------------------------0-----------------0----------|
G|---------2------------2----------2----2----------2-----------2-------------|
D|------2-----------------------2---------------------------2----------------|
A|--3------------------------3----------2---------------0--------------------|
E|---------------------------------------------------------------------------|

e|---------0----------0---------------------------------------------0--------|
B|-------------------------3--2---------------0------0-----------------------|
G|------2---------2--------------2----------2------2-----2------2------------|
D|---2---------2-------------------------2------2------------2---------------|
A|----------4-------------------------3------------------3----------2--------|
E|---------------------------------------------------------------------------|

            
            
Suggest correction
Creating personal tab
Creating personal tab
You can edit any tab online and save it as your Personal.

You can edit, replace or remove any tab part or add personal notes – all changes will be seen only by you.

Personal tabs can be accessed anytime from any device, even offline.
Learn more »
comments
print report bad tab
5 comments total. Showing first comments.
+2 reply
happypie.ms 10 Dec 05, 2015 01:11 PM

Really good, I love it. Some timing would help.

+1 reply
Alyers 20 Dec 12, 2015 12:14 PM

Love it, awesome.

+1 reply
jennyhappy5v 10 Feb 20, 2016 04:44 PM

omg THANK YOU SO MUCH

guest
You may want to rate the tab now too:
select rating
Wanna post a correction for this tab? Suggest correction