Oops, an error
Loading. Please wait.

Undertale - Megalovania tab

version 1
version 1

Whole song

  • A fingerstyle arrangement of the song Megalovania from UNDERTALE.
118,849 views 1,236 this week
8 commentsread comments
1 2 3 4 5
x 32
add to favorites
×
Save as Personal and add changes to this tab that will be seen only by you. Learn more ›
×
You can save this tab as Personal to edit and correct it or add notes. All changes will be seen only by you. Learn more »
launch autoscroll
font size
0
reset
how to read this tab
guitar tuner
edit
Autoscroll
slow
fast
+/-
esc
set tempo
stop
Author
Artist: Toby Fox
Song: MEGALOVANIA
Album: UNDERTALE Soundtrack 
Tabbed by: gustavoaraujo999@hotmail.com
Tuning: Standard (EADGBE)


**Only the main track. Sorry.
**Watching that one famous metal cover of the song might help.
**I'd love it if someone could figure out that tapping part of the main motif he does on the video.
**I suspect this song might be in Half-step down to play an open Ab in the bridge.


0:00
e|----------------------------|---------------------------|
B|----------------------------|---------------------------|
G|------7---------------------|------7--------------------|
D|---------7--6-5-----3-0-3-5-|--------7--6-5-----3-0-3-5-|
A|-5-5------------------------|---------------------------|
E|----------------------------|-8-8-----------------------|

e|----------------------------|---------------------------|
B|----------------------------|---------------------------|
G|------7---------------------|------7--------------------|
D|---------7--6-5-----3-0-3-5-|--------7--6-5-----3-0-3-5-|
A|----------------------------|---------------------------|
E|-7-7------------------------|-6-6-----------------------|


0:17
e|--------------------------------------|--------------------------------------|
B|-------15-----------------------------|-------15-----------------------------|
G|----------14---13-12---------------12-|----------14---13-12---------------12-|
D|-12-12-----------------15-15-12-15----|-----------------------15-15-12-15----|
A|--------------------------------------|-15-15--------------------------------|
E|--------------------------------------|--------------------------------------|

e|--------------------------------------|--------------------------------------|
B|-------15-----------------------------|-------15-----------------------------|
G|----------14---13-12---------------12-|----------14---13-12---------------12-|
D|-----------------------15-15-12-15----|-----------------------15-15-12-15----|
A|-14-14--------------------------------|-13-13--------------------------------|
E|--------------------------------------|--------------------------------------|


0:30
e|-----------------------------------------------------------------------------|
B|-----------------------------------------------------------------------------|
G|-10--10-10--10--10---------10--10-10--12-13-13-12----10-12-------------------|
D|-------------------12-12--------------------------12-------------------------|
A|-----------------------------------------------------------------------------|
E|-----------------------------------------------------------------------------|

e|-----------------------------------------------------------------------------|
B|------------------------13---------15--15-15-15----15-13---------------------|
G|-10--10-10--12--13--14------14------------------14---------------------------|
D|-----------------------------------------------------------------------------|
A|-----------------------------------------------------------------------------|
E|-----------------------------------------------------------------------------|


0:40
e|-----------------------------------------------------------------------------|
B|-----------------------------------------------15----------------------------|
G|-14--14-14--14--14-12-12---14--14-14--14-12-14----14-12----------------------|
D|-----------------------------------------------------------------------------|
A|-----------------------------------------------------------------------------|
E|-----------------------------------------------------------------------------|

(not sure about this part)
e|-------------------------------------------------------------------------|
B|-15----------------------13-------------------------------------------13-|
G|-------14----12----------------12----------------------------------12----|
D|----12----12----12-15-------12----12-15-12-14------------12-13-15--------|
A|-----------------------------------------------13---13-15----------------|
E|-------------------------------------------------------------------------|


0:53
e|-----------------------------------------------------------------------------|
B|-----------------------------------------------------------------------------|
G|-10----10-12-13-12-10-----13p12p10----10-12----------------------------------|
D|----12----------------12-----------12----------------------------------------|
A|-----------------------------------------------------------------------------|
E|-----------------------------------------------------------------------------|

e|-----------------------------------t-----------------------------------------|
B|--------13-----------------------------13--14--------------------------------|
G|-13--14------14-13-12-10----9-10-12-14--------13---13-12----12---------------|
D|-------------------------12------------------------------15------------------|
A|-----------------------------------------------------------------------------|
E|-----------------------------------------------------------------------------|

e|----------13-12-----12--13--15--12--17----17-16-15-14-13--------------------|
B|----------------15---------------------------------------17-16-15-14b--16---|
G|-10-12-14-------------------------------------------------------------------|
D|----------------------------------------------------------------------------|
A|----------------------------------------------------------------------------|
E|----------------------------------------------------------------------------|


1:20
e|--------------------------------------------------------------------------|
B|--------------------------------------------------------------------------|
G|--------------------------------------------------------------------------|
D|--------------------------------------------------------------------------|
A|--------------8-8--7-7-7-7--5-5-5-5--8-8-8-8-8-8-8-8-8-8-8-8-8-8-8-8-8-8--|
E|-6-6-6-6-6-6--------------------------------------------------------------|

e|--------------------------------------------------------------------------|
B|--------------------------------------------------------------------------|
G|--------------------------------------------------------------------------|
D|--------------------------------------------------------------------------|
A|--------------8-8--7-7-7-7--5-5-5-5--5-5-5-5-5-5-5-5-5-5-5-5-5\4\3\2\1\0--|
E|-6-6-6-6-6-6--------------------------------------------------------------|


1:47
(def not sure about this one)
e|---------------------------|
B|---------------------------|
G|---10-9--------9-7---------|
D|-7-------7-7-7------7-9-10-|
A|---------------------------|
E|---------------------------|


1:51
e|-----------------------------------------------------------------------------|
B|-----------------------------------------------------------------------------|
G|-----------------------------------------------------------------------------|
D|------8--------------------10----------------------------------------------8-|
A|-----------------------------------------------------------------------------|
E|-6-6-----6-6---6--6---8-8-----8-8---8---10-10--10--9-9--9--8-8--8--7-7--7----|

e|-----------------------------------------------------------------------------|
B|-----------------------------------------------------------------------------|
G|-----------------------------------------------------------------------------|
D|------8--------------------10------------------------------------------------|
A|-----------------------------------------------------------------------------|
E|-6-6-----6-6---6--6---8-8-----8-8---8---10-10--10--10-10-10---10-10-10-10-10-|


2:24
e|----------------------------|---------------------------|
B|----------------------------|---------------------------|
G|------7---------------------|------7--------------------|
D|---------7--6-5-----------5-|--------7--6-5-----------5-|
A|------------------8-8-5-8---|-----------------8-8-5-8---|
E|-6-6------------------------|-8-8-----------------------|

e|----------------------------|---------------------------|
B|----------------------------|---------------------------|
G|------7---------------------|------7--------------------|
D|---------7--6-5-----------5-|--------7--6-5-----------5-|
A|-5-5--------------8-8-5-8---|-5-5-------------8-8-5-8---|
E|----------------------------|---------------------------|

e|----------------------------|---------------------------|
B|----------------------------|---------------------------|
G|------7---------------------|------7--------------------|
D|---------7--6-5-----------5-|--------7--6-5-----------5-|
A|------------------8-8-5-8---|-----------------8-8-5-8---|
E|-6-6------------------------|-8-8-----------------------|

And then the music loops.


Thanks for reading. Comments and suggestions are welcome!


************************************

| h  Hammer-on
| p  Pull-off
| t  Tapping
| b  Bend
| \  Slide down

************************************

            
            
Suggest correction
Creating personal tab
Creating personal tab
You can edit any tab online and save it as your Personal.

You can edit, replace or remove any tab part or add personal notes – all changes will be seen only by you.

Personal tabs can be accessed anytime from any device, even offline.
Learn more »
comments
print report bad tab
8 comments total. Showing first comments. show 1 bad comment
+9 reply
NoOrzoJustRamen 10 Dec 09, 2015 06:21 AM

Playing this for guitar class and I feel like I'm gonna have a bad time. I can literally feel my mistakes crawling on my back.

Also there is a simpler intro you can use that is higher on the frets (the highest being a '3')

0 reply
hatakelolo6 10 Feb 02, 2016 02:59 AM

on the first part where you arent sure i play:

2 --15------------13--------------------------13
3 -----14--12--10----12--10--9-----9--10--12----
4 ------------------------------10--------------

cause before i play:

1 ---------------------------------------------10----
2 -10--10-10--10--10--------10--10-10--10----10--10-8
3 -------------------12--12---------------12---------

seen on a yt vid

guest
You may want to rate the tab now too:
select rating
Wanna post a correction for this tab? Suggest correction