Oops, an error
Loading. Please wait.

Undertale - Snowy intro tab

version 1
version 1

Intro

3,088 views 3 this week
7 commentsread comments
1 2 3 4 5
x 4
add to favorites
×
Save as Personal and add changes to this tab that will be seen only by you. Learn more ›
×
You can save this tab as Personal to edit and correct it or add notes. All changes will be seen only by you. Learn more »
launch autoscroll
font size
0
reset
how to read this tab
guitar tuner
edit
Autoscroll
slow
fast
+/-
esc
set tempo
stop
Author
Difficulty
-------------------------------------------------------------------------------
                         Toby Fox - Undertale OST - Snowy Intro.
-------------------------------------------------------------------------------
Tabbed by: moportalturret
E-mail: moportalturret@gmail.com

Tuning: Standard 

e|--------10-------------------------------------|
B|--------------8--10--12-10--8------------------|
G|------------8----------------------------------|
D|-----------------------------------------------| X2
A|-----------------------------------------------|
E|-----------------------------------------------|

e|---------9---------------------------------|
B|--------------8--10--12-15-14--------------|
G|------------8--------------------14--13----|
D|-------------------------------------------|
A|-------------------------------------------|
E|-------------------------------------------|

Thats its, i don't think it's 100% accurate but is good for me at the moment
(as you can see, it's only a short percent of the melody)


************************************

| /   slide up
| \   slide down
| h   hammer-on
| p   pull-off
| ~   vibrato
| +   harmonic
| x   Mute note
| b   Bend
| pb  Pre-bend
| br  Bend release
| pbr Pre-bend release
| brb Bend release bend

************************************

            
            
Suggest correction
Creating personal tab
Creating personal tab
You can edit any tab online and save it as your Personal.

You can edit, replace or remove any tab part or add personal notes – all changes will be seen only by you.

Personal tabs can be accessed anytime from any device, even offline.
Learn more »
comments
print report bad tab
7 comments total. Showing first comments.
0 reply
trollocat 10 Mar 07, 2016 07:14 AM, edited at 12:19 pm

NOPE

0 reply
trollocat 10 Mar 07, 2016 07:18 AM

THIS IS WRONG:
I do not know how to delete this comment

0 reply
trollocat 10 Mar 07, 2016 07:17 AM

Actually, if you do it one entire octave down, sounds much better.Something like:

e|-----------------------------------|
B|---3-------------------------------|
G|----------------0-2--4--2h4p2-0----|
D|------------0----------------------| X2
A|-----------------------------------|
E|-----------------------------------|

guest
You may want to rate the tab now too:
select rating
Wanna post a correction for this tab? Suggest correction