Oops, an error
Loading. Please wait.

Vanishing Of The Ethan Carter - Ethans Theme tab

version 1
version 1

Whole song

  • This is for a Youtube cover version - https://www.... Show more

Interactive

31 views 1 this week
no commentswrite comment
1 2 3 4 5
3 more votes to show rating
add to favorites
×
Save as Personal and add changes to this tab that will be seen only by you. Learn more ›
×
You can save this tab as Personal to edit and correct it or add notes. All changes will be seen only by you. Learn more »
launch autoscroll
font size
0
reset
how to read this tab
guitar tuner
edit
Autoscroll
slow
fast
+/-
esc
set tempo
stop
Youtube cover link https://www.youtube.com/watch?v=zDSfWwIJP1o

(Guitar 1: Lead)
f#|---------------------|---8-10----------------|--------|---------------|
C#|---8---------10-11---|--------10-------------|--------|----------11---|
A |---------------------|-----------10----------|--------|---------------|
E |---------------------|-----------------------|---12---|---------------|
B |---------------------|-----------------------|--------|---------------|
F#|---------------------|-----------------------|--------|---------------|

f#|----------------------|------10----------------|-----------------------|
C#|--------------10-11---|---13----11-------10----|---10-------------10---|
A |---12-----------------|------------12----------|-----------------------|
E |----------------------|------------------------|-----------------------|
B |----------------------|------------------------|-----------------------|
F#|----------------------|------------------------|-----------------------|

f#|---------------10-11---|------17-22----17-22---|--------|
C#|------10-11-13---------|---15-------15---------|---13---|
A |-----------------------|-----------------------|--------|
E |---12------------------|-----------------------|--------|
B |-----------------------|-----------------------|--------|
F#|-----------------------|-----------------------|--------|

f#|------15-20----15-20---|-----------------------|--------------------------|
C#|---13-------13---------|---13-------13---------|-----------13-15-13-------|
A |-----------------------|---------------15-14---|---15---------------15-14-|
E |-----------------------|-----------------------|--------------------------|
B |-----------------------|-----------------------|--------------------------|
F#|-----------------------|-----------------------|--------------------------|

f#|--------|--------|---10---|-------------------------|---------------------|
C#|--------|---13---|--------|--------13-15-13---------|----------13---------|
A |---15---|--------|---10---|---11------------15-14---|---15--------15-14---|
E |--------|--------|--------|---12--------------------|---------------------|
B |--------|--------|--------|-------------------------|---------------------|
F#|--------|--------|--------|-------------------------|---------------------|

f#|---------------|---10---|------------10------|---------10------|--------|
C#|----------13---|--------|---10-11-13----11---|---10------------|---11---|
A |---15----------|---10---|--------------------|-----------------|--------|
E |---------------|--------|--------------------|-----------------|--------|
B |---------------|--------|--------------------|-----------------|--------|
F#|---------------|--------|--------------------|-----------------|--------|

f#|----------------------|------10----------|--------|--------|-----------|
C#|--------------10-11---|---13----10-------|--------|--------|---10-11---|
A |---12-----------------|------------10----|--------|---12---|-----------|
E |----------------------|------------------|---12---|--------|-----------|
B |----------------------|------------------|--------|--------|-----------|
F#|----------------------|------------------|--------|--------|-----------|

f#|------10--------------|--------|--------|------------10-11-11---|
C#|---13----10-----------|---11---|---10---|------11-13------------|
A |------------10--------|--------|--------|-----------------------|
E |----------------------|--------|--------|---12------------------|
B |----------------------|--------|--------|-----------------------|
F#|----------------------|--------|--------|-----------------------|

f#|------17-22----17-22---|--------|
C#|---15-------15---------|---13---|
A |-----------------------|--------|
E |-----------------------|--------|
B |-----------------------|--------|
F#|-----------------------|--------|

f#|------15-20----15-20---|-----------------------|--------------------------|
C#|---13-------13---------|---13-------13---------|-----------13-15-13-------|
A |-----------------------|---------------15-14---|---15---------------15-14-|
E |-----------------------|-----------------------|--------------------------|
B |-----------------------|-----------------------|--------------------------|
F#|-----------------------|-----------------------|--------------------------|

f#|--------|--------|---10---|-----------22-20-22---|---20-18---20-18-17---|
C#|--------|---13---|--------|----------------------|----------------------|
A |---15---|--------|---10---|----------------------|----------------------|
E |--------|--------|--------|----------------------|----------------------|
B |--------|--------|--------|----------------------|----------------------|
F#|--------|--------|--------|----------------------|----------------------|

f#|---20-18----20-18-20---|---22---|------17-22----17-22---|--------|
C#|-----------------------|---18---|---15-------15---------|---15---|
A |-----------------------|--------|-----------------------|--------|
E |-----------------------|--------|-----------------------|--------|
B |-----------------------|--------|-----------------------|--------|
F#|-----------------------|--------|-----------------------|--------|

(Guitar 2: Rhythm)
f#|-------------------|-------------------|-------------------|-----------|
C#|-------------------|-------------------|-------------------|-----------|
A |-----7-7-----7-7---|-----7-7-----7-7---|-----7-7-----7-7---|-----7-7---|
E |---5------5--------|---5------5--------|---5------5--------|---5-------|
B |-------------------|-------------------|-------------------|-----------|
F#|-------------------|-------------------|-------------------|-----------|

f#|------------------|------------------|------------------|
C#|------------------|------------------|------------------|
A |------------------|------------------|------------------|
E |-----8-8----8-8---|-----8-8----8-8---|-----8-8----8-8---|
B |---6------6-------|---6------6-------|---6------6-------|
F#|------------------|------------------|------------------|

f#|-------------------|-------------------|----------------------|
C#|-------------------|-------12-----12---|--------10-------10---|
A |-----7-7-----7-7---|-----7------7------|------7--------7------|
E |-------------------|-------------------|----------------------|
B |---9------9--------|---9------9--------|---9---------8--------|
F#|-------------------|-------------------|----------------------|

f#|---------------------|---------------------|-------------------|
C#|--------9--------9---|--------9--------9---|-------8-------8---|
A |---------------------|---------------------|-----5-------5-----|
E |-----10-------10-----|-----10-------10-----|-------------------|
B |---8--------8--------|---8--------8--------|---6-------6-------|
F#|---------------------|---------------------|-------------------|

f#|-------------------|-------------------|------------|
C#|-------8-------8---|-------7-------7---|--------7---|
A |-------------------|-------------------|------------|
E |-----8-------8-----|-----8-------8-----|-----8------|
B |---6-------6-------|---6-------6-------|---6--------|
F#|-------------------|-------------------|------------|

f#|------------------|------------------|------------------|
C#|--------3---------|------------------|-------8------8---|
A |------------------|-------2----------|------------------|
E |-----3-----0-3~---|-----4-------4~---|-----8------8-----|
B |---1--------------|---0-------0------|---6------6-------|
F#|------------------|------------------|------------------|

f#|-------------------|-------------------|
C#|-------7-------7---|-------3-------3---|
A |-------------------|-------------------|
E |-----8-------8-----|-----3-------3-----|
B |---6-------6-------|---1-------1-------|
F#|-------------------|-------------------|

f#|------------------|------------------|-----------|
C#|-------3----------|------------------|-----------|
A |------------------|-------7------7---|-------7---|
E |-----3-------3~---|-----4------4-----|-----4-----|
B |---1-------1------|---0------0-------|---0-------|
F#|------------------|------------------|-----------|

f#|-------------------|-------------------|-----------|
C#|-------------------|-------------------|-----------|
A |-----7-7-----7-7---|-----7-7-----7-7---|-----7-7---|
E |---5------5--------|---5------5--------|---5-------|
B |-------------------|-------------------|-----------|
F#|-------------------|-------------------|-----------|

f#|------------------|------------------|------------------|
C#|------------------|------------------|------------------|
A |------------------|------------------|------------------|
E |-----8-8----8-8---|-----8-8----8-8---|-----8-8----8-8---|
B |---6------6-------|---6------6-------|---6------6-------|
F#|------------------|------------------|------------------|

f#|-----------|--------------------|---------------------|
C#|-----------|---------------10---|-------10-------10---|
A |-----------|-----7-7-----7------|-----7--------7------|
E |-----8-8---|--------------------|---------------------|
B |---6-------|---9-------9--------|---9--------9--------|
F#|-----------|--------------------|---------------------|

f#|--------------------|---------------------|---------------------|
C#|-------10------10---|--------9--------9---|--------9--------9---|
A |-----7-------7------|---------------------|---------------------|
E |--------------------|-----10-------10-----|-----10-------10-----|
B |---9-------8--------|---8--------8--------|---8--------8--------|
F#|--------------------|---------------------|---------------------|

f#|-------------------|------------------|--------------------|
C#|-------8-------8---|-------8------8---|-------8--------8---|
A |-----5-------5-----|-----5------5-----|--------------------|
E |-------------------|------------------|-----8--------8-----|
B |---6-------6-------|---6------6-------|---6--------6-------|
F#|-------------------|------------------|--------------------|

f#|-------------------|-------------------|------------------|
C#|-------7-------7---|-------3-------3---|-------3------3---|
A |-------------------|-------------------|------------------|
E |-----8-------8-----|-----3------3------|-----3------3-----|
B |---6-------6-------|---1------1--------|---1------1-------|
F#|-------------------|-------------------|------------------|

f#|-------------------|-------------------|-------------------|
C#|-------8-------8---|-------7-------7---|-------6-------6---|
A |-------------------|-------------------|-------------------|
E |-----8-------8-----|-----8-------8-----|-----8-------8-----|
B |---6-------6-------|---6-------6-------|---5-------5-------|
F#|-------------------|-------------------|-------------------|

f#|--------------------|--------------------|--------|
C#|-------6------6-6---|-------10------10---|--------|
A |--------------------|-----7-------7------|--------|
E |-----8-----8--------|--------------------|--------|
B |---5----------------|---9-------9--------|---9----|
F#|--------------------|--------------------|--------|


************************************

| ~  Vibrato

************************************

            
            
Suggest correction
Creating personal tab
Creating personal tab
You can edit any tab online and save it as your Personal.

You can edit, replace or remove any tab part or add personal notes – all changes will be seen only by you.

Personal tabs can be accessed anytime from any device, even offline.
Learn more »
Give kudos to tab author, rate the tab!
1 2 3 4 5
comments
print report bad tab
guest
You may want to rate the tab now too:
select rating
Wanna post a correction for this tab? Suggest correction