Oops, an error
Loading. Please wait.

Vertigo Racing - Mediterrano solo tab

19 views 3 this week
no commentswrite comment
1 2 3 4 5
3 more votes to show rating
add to favorites
×
Save as Personal and add changes to this tab that will be seen only by you. Learn more ›
×
You can save this tab as Personal to edit and correct it or add notes. All changes will be seen only by you. Learn more »
launch autoscroll
font size
0
reset
how to read this tab
guitar tuner
edit
Autoscroll
slow
fast
+/-
esc
set tempo
stop
This is the tabs for the soundtrack you hear in the level Mediterrano in the Mobile video game 
"Vertigo Racing" Unfortunately, the author and the title of the instrumental is unknown to me,
and the developer of the game  gave no more hints than that he obtained the soundtrack from the website
www.pond5.com

[Main Guitar Riff]
e|---------------------------------------------|
B|---------------------------------------------|
G|-----4---4---3/4--3--1---1/3--1--------------|
D|-----------------------4---------------------|
A|-5/6---6-------------------------------------|
E|---------------------------------------------|

e|---------------------------------------------|
B|---------------------------------------------|
G|-------4-----4--3/4--3-----------4--3--------|
D|------------------------4--1--4--------------|
A|--5/7-----7----------------------------------|
E|---------------------------------------------|


e|---------------------------------------------|
B|---------------------------------------------|
G|-----4---4---3/6--4--3---1/3--1--------------|
D|-----------------------4---------------------|
A|-5/6---6-------------------------------------|
E|---------------------------------------------|

e|-----------------------------------------------|
B|-----------------------------------------------|
G|-4--------4-----4--3/4--3-----------4--3--1----|
D|--------------------------4--1--4--------------|
A|----5/7-----7----------------------------------|
E|-----------------------------------------------|



************************************

| /  Slide up

************************************

            
            
Suggest correction
Creating personal tab
Creating personal tab
You can edit any tab online and save it as your Personal.

You can edit, replace or remove any tab part or add personal notes – all changes will be seen only by you.

Personal tabs can be accessed anytime from any device, even offline.
Learn more »
Give kudos to tab author, rate the tab!
1 2 3 4 5
comments
print report bad tab
guest
You may want to rate the tab now too:
select rating
Wanna post a correction for this tab? Suggest correction