Oops, an error
Loading. Please wait.

Xenogears - June Mermaid tab

1,606 views 1 this week
1 commentread comment
1 2 3 4 5
x 3
add to favorites
×
Save as Personal and add changes to this tab that will be seen only by you. Learn more ›
×
You can save this tab as Personal to edit and correct it or add notes. All changes will be seen only by you. Learn more »
launch autoscroll
font size
0
reset
how to read this tab
guitar tuner
edit
Autoscroll
slow
fast
+/-
esc
set tempo
stop
Author
-------------------------------------------------------------------------------
                            June Mermaid - Xenogears
-------------------------------------------------------------------------------
Tabbed by:Xaxu
Tuning:Standard

This is an arrangement by Riulyn and composed by Yasunori Mitsuda.
The video from timing is here = http://www.youtube.com/watch?v=nl2phFAktbM


  0:01 - 0:12
e|------0------0--1------------------------------|
B|--------1--3------1----------------------------|
G|----0---------------3--2--3--0--2---0--2--0----|
D|--3-------------------------------3---------2--|
A|-----------------------------------------------|
E|-----------------------------------------------|

  0:13 - 0:25
e|------0------0--1------------------------------|
B|--------1--3------1----------------------------|
G|----0---------------3--2--3--0--2---0--2--0----|
D|--3-------------------------------3---------2--|
A|-----------------------------------------------|
E|-----------------------------------------------|

  0:26 - 0:36
e|------------------3--1--0------------------------|
B|-------------1--3---------------------1--3--3----|
G|----0--2--3--0--3---------2--0--2--3--0-------3--|
D|--3----------------------------------------------|
A|-------------------------------------------------|
E|-------------------------------------------------|

  0:37 - 0:53
e|----------------------0--1--1--0-----------|
B|--------1--3--4--3--3-------1--1-----------|
G|--3--2--2--------3--4-------2--2--3--2--0--|
D|-------------------------------------------|
A|-------------------------------------------|
E|-------------------------------------------|

  0:54 - 1:04
e|------0------0--1------------------------------|
B|--------1--3------1----------------------------|
G|----0---------------3--2--3--0--2---0--2--0----|
D|--3-------------------------------3---------2--|
A|-----------------------------------------------|
E|-----------------------------------------------|

  1:05 - 1:16
e|------0------0--1------------------------------|
B|--------1--3------1----------------------------|
G|----0---------------3--2--3--0--2---0--2--0----|
D|--3-------------------------------3---------2--|
A|-----------------------------------------------|
E|-----------------------------------------------|

  1:17 - 1:26
e|-----------------3--1--0-------------------|
B|------------1--3-----------3--1------------|
G|----0--2--3--------------2------0----------|
D|--3-------------------------------3--2--0--|
A|----------------------------------------0--|
E|-------------------------------------3--3--|


  1:32 - 1:35
e|---------------------------------------|
B|--3--------3--------3--------3---------|
G|------0--2-----0--2-----0--2-----0--2--|
D|----0--------0--------0--------0-------|
A|---------------------------------------|
E|---------------------------------------|

  1:36 - 1:38
e|---------------------------------------|
B|--3--------3--------3--------3---------|
G|------0--2-----0--2-----0--2-----0--2--|
D|----0--------0--------0--------0-------|
A|---------------------------------------|
E|---------------------------------------|

  1:39 - 1:42
e|---------------------------------------|
B|--3--------3--------3--------3---------|
G|------0--2-----0--2-----0--2-----0--2--|
D|----0--------0--------0--------0-------|
A|---------------------------------------|
E|---------------------------------------|

  1:43 - 1:46
e|---------------------------------------|
B|--3--------3--------3--------3---------|
G|------0--2-----0--2-----0--2-----0--2--|
D|----0--------0--------0--------0-------|
A|---------------------------------------|
E|---------------------------------------|

  1:47 - 1:50
e|---------------------------------------|
B|--3--------3--------3--------3---------|
G|------0--2-----0--2-----0--2-----0--2--|
D|----0--------0--------0--------0-------|
A|---------------------------------------|
E|---------------------------------------|

  1:51 - 1:53
e|---------------------------------------|
B|--3--------3--------3--------3---------|
G|------0--2-----0--2-----0--2-----0--2--|
D|----0--------0--------0--------0-------|
A|---------------------------------------|
E|---------------------------------------|

  1:54 - 1:57
e|---------------------------------------|
B|--3--------3--------3--------3---------|
G|------0--2-----0--2-----0--2-----0--2--|
D|----0--------0--------0--------0-------|
A|---------------------------------------|
E|---------------------------------------|

  1:58 - 2:01
e|---------------------------------------|
B|--3--------3--------3--------3---------|
G|------0--2-----0--2-----0--2-----0--2--|
D|----0--------0--------0--------0-------|
A|---------------------------------------|
E|---------------------------------------|

  2:02
e|--0--|
B|-----|
G|--2--|
D|-----|
A|-----|
E|-----|

Repeat till infinity


| /  slide up
| \  slide down
| h  hammer-on
| p  pull-off
| ~  vibrato
| +  harmonic
| x  Mute note
===============================================================================

            
            
Suggest correction
Creating personal tab
Creating personal tab
You can edit any tab online and save it as your Personal.

You can edit, replace or remove any tab part or add personal notes – all changes will be seen only by you.

Personal tabs can be accessed anytime from any device, even offline.
Learn more »
Give kudos to tab author, rate the tab!
1 2 3 4 5
comments
print report bad tab
1 comment total.
0 reply
Scintillance 12 Jun 27, 2013 10:21 AM

This is beautifully done. Thank you, so much. Not only for this tab but all of the other Xenogears tabs you've put up on this site. You've brought an old fan a lot of joy.

guest
You may want to rate the tab now too:
select rating
Wanna post a correction for this tab? Suggest correction