Oops, an error
Loading. Please wait.

Yoshis Story Theme tab

version 1
version 1

Whole song

Interactive

4,244 views 18 this week
no commentswrite comment
1 2 3 4 5
2 more votes to show rating
add to favorites
×
Save as Personal and add changes to this tab that will be seen only by you. Learn more ›
×
You can save this tab as Personal to edit and correct it or add notes. All changes will be seen only by you. Learn more »
launch autoscroll
font size
0
reset
how to read this tab
guitar tuner
edit
Autoscroll
slow
fast
+/-
esc
set tempo
stop
here's one of the most recurring songs found on yoshis story for the N64
i'm pretty sure its also used on the yoshi level in the original super smash brothers for N64
this way sounds really good on an acoustic guitar



here it is, there are two riffs and turn arounds to it,  chords Included:



     C                       Dm
|-----------------------|------------|
|-----------------------|------------|
|-------------5b--------|------------|
|---------------------7-|------------|
|---3-3-3-3------3-3----|-3--5~~~~~~-|
|-----------------------|------------|
     C                       Dm
|-----------------------|------------|
|-----------------------|------------|
|-------------5b--------|------------|
|---------------------7-|------------|
|---3-3-3-3------3-3----|-3--5~~~~~~-|
|-----------------------|------------|

             G                  Em
|-------------------|------------------|
|-------------------|------------------|
|-------------------|------------------|
|---7--5--7--5~~~~~-|--3--2--3--2~~~~~-|
|-------------------|------------------|
|-------------------|------------------|

             C
|---------------------|
|---------------------|
|---------------------|
|---------------------|
|---5--3--5--3~~~~~~--|
|---------------------|

then there is a slight variation
  
    C        Dm        C           Dm
|-------------------|--------------------|
|-------------------|--------------------|
|-------------------|--------------------|
|------5------------|-----5--------------|
|---3-----3---5~~~~-|--3------3---5~~~~~-|
|-------------------|--------------------|


   C                             Am      G
|--------------------|-----------------|---------|
|--------------------|-----------------|---------|
|--------------------|-----------------|--0~~~~~-|
|--------------------|-----------------|---------|
|--7--7--5--7--5--3--|--2--3--2--0~~~~-|---------|
|--------------------|-----------------|---------|

REPEAT


and there you go! i hope this helps! i'm not sure if this tab already exists
 because i don't have guitar pro, but i hope it helps someone!

-Bertman

            
            
Suggest correction
Creating personal tab
Creating personal tab
You can edit any tab online and save it as your Personal.

You can edit, replace or remove any tab part or add personal notes – all changes will be seen only by you.

Personal tabs can be accessed anytime from any device, even offline.
Learn more »
Give kudos to tab author, rate the tab!
1 2 3 4 5
comments
print report bad tab
guest
You may want to rate the tab now too:
select rating
Wanna post a correction for this tab? Suggest correction