Oops, an error
Loading. Please wait.

Away In A Manger bass

5,827 views 21 this week
no commentswrite comment
1 2 3 4 5
x 3
add to favorites
×
Save as Personal and add changes to this tab that will be seen only by you. Learn more ›
×
You can save this tab as Personal to edit and correct it or add notes. All changes will be seen only by you. Learn more »
launch autoscroll
font size
0
reset
guitar tuner
edit
Autoscroll
slow
fast
+/-
esc
set tempo
stop
A Christmas Song.


1. (Away in a manger, No crib for a bed.)
2. (The cattle are lowering, the baby awakes.)
3. (Be near me Lord Jesus, I ask they to stay)

G|--------------------------------------------------------------------------|
D|-2-2---0------------------------------------------------------------------|
A|-----------3---3-2-----------0--0-----------------------------------------|
E|-----------------------------------3--1--0--------------------------------|


1. (The little Lord Jesus, Laid down His sweet head)
2. (But little Lord Jesus, no crying He makes)
3. (Close by me forever, and Love me I pray)

G|--------------------------------------------------------------------------|
D|--------------------------------------------------------------------------|
A|---------------2--------------0--3----------------------------------------|
E|-0---0-1--0--0------3--1---0----------------------------------------------|

1. (The stars in the sky,  Looked down where he Lay.)
2. (I love thee Lord Jesus,  Look down from the sky)
3. (Bless all the dear children,  in thy tender care.)

G|--------------------------------------------------------------------------|
D|-2---2--0-----------------------------------------------------------------|
A|-----------3---3--------0--0----------------------------------------------|
E|------------------------------3---1---0-----------------------------------|

1. (The Little Lord Jesus,  asleep on the hay)
2. (And stay by my cradle,  til the morning is nigh)
3. (And fit us for Heaven,  to live with thee there)

G|--------------------------------------------------------------------------|
D|----0---------------------------------------------------------------------|
A|------3--2--32---------0-2----------0-------------------------------------|
E|-0---------------------------1--3-----------------------------------------|

            
            
Suggest correction
Creating personal tab
Creating personal tab
You can edit any tab online and save it as your Personal.

You can edit, replace or remove any tab part or add personal notes – all changes will be seen only by you.

Personal tabs can be accessed anytime from any device, even offline.
Learn more »
Give kudos to tab author, rate the tab!
1 2 3 4 5
comments
print report bad tab
guest
You may want to rate the tab now too:
select rating
Wanna post a correction for this tab? Suggest correction