Oops, an error
Loading. Please wait.

C Major Scale tab

115,778 views 135 this week
6 commentsread comments
1 2 3 4 5
x 26
add to favorites
×
Save as Personal and add changes to this tab that will be seen only by you. Learn more ›
×
You can save this tab as Personal to edit and correct it or add notes. All changes will be seen only by you. Learn more »
launch autoscroll
font size
0
reset
how to read this tab
guitar tuner
edit
Autoscroll
slow
fast
+/-
esc
set tempo
stop
e|---------------------------------|---------------------------------|
B|--------------0-1-0--------------|---------------------------------|
G|----------0-2-------2-0----------|------------2-4-5-4-2------------|
D|----0-2-3---------------3-2-0----|------2-3-5-----------5-3-2------|
A|--3---------------------------3--|--3-5-----------------------5-3--|
E|---------------------------------|---------------------------------|


                                                                    
e|---------------------------------|---------------------------------|
B|---------------------------------|---------------------------------|
G|--------------4-5-4--------------|----------------5----------------|
D|--------3-5-7-------7-5-3--------|----------5-7-9---9-7-5----------|
A|--3-5-7-------------------7-5-3--|----5-7-8---------------8-7-5----|
E|---------------------------------|--8---------------------------8--|


                                       
e|--------------------------------------|
B|--------------------------------------|
G|--------------------------------------|
D|--------------7-9-10-9-7--------------|
A|-------7-8-10------------10-8-7-------|
E|--8-10--------------------------10-8--|


                                            
e|------------------------------------------||
B|------------------------------------------||
G|------------------------------------------||
D|------------------9-10-9------------------||
A|----------8-10-12--------12-10-8----------||
E|--8-10-12------------------------12-10-8--||

            
            
Suggest correction
Creating personal tab
Creating personal tab
You can edit any tab online and save it as your Personal.

You can edit, replace or remove any tab part or add personal notes – all changes will be seen only by you.

Personal tabs can be accessed anytime from any device, even offline.
Learn more »
comments
print report bad tab
6 comments total. Showing first comments.
+5 reply
Led_Zeppelin992 56 Jul 23, 2006 10:45 AM

The note in your first scale should be 3-2 not 2-1

0 reply
moz92 72 Jan 13, 2008 07:18 PM

you r right Led!

0 reply
slash0027 10 Dec 28, 2008 06:45 PM

the second measure is wrong?? i think

guest
You may want to rate the tab now too:
select rating
Wanna post a correction for this tab? Suggest correction