Oops, an error
Loading. Please wait.

Anastasia - Once Upon A December tab

version 2
version 2

Whole song

  • This is for the Youtube Cover Version - https://ww... Show more
  • For Youtube Cover Version (Rhythm Guitar 1) - http... Show more
226 views 9 this week
no commentswrite comment
1 2 3 4 5
2 more votes to show rating
add to favorites
×
Save as Personal and add changes to this tab that will be seen only by you. Learn more ›
×
You can save this tab as Personal to edit and correct it or add notes. All changes will be seen only by you. Learn more »
launch autoscroll
font size
0
reset
how to read this tab
guitar tuner
edit
Autoscroll
slow
fast
+/-
esc
set tempo
stop
For Youtube Cover Version - https://www.youtube.com/watch?v=oucXRdLYepI


FOR PART: Rhythm Guitar 1

[Intro]
e |-----------------------------|-----------------------------|
B |-------7-----7-----7-----7---|-------7-----7-----7-----7---|
G |-----7-----7-----7-----7-----|-----7-----7-----7-----7-----|
D |---9-----------9-------------|---9-----------9-------------|
A |---------9-----------9-------|---------9-----------9-------|
E |-----------------------------|-----------------------------|


e |-------------------------------|-----------------------------|
B |--------7-----7------7-----7---|-------7-----7-----7-----7---|
G |------9-----9------9-----9-----|-----7-----7-----7-----7-----|
D |---11-----------11-------------|---9-----------9-------------|
A |----------9------------9-------|---------9-----------9-------|
E |-------------------------------|-----------------------------|


[Verse 1]
e |--------------------------------|----------------------------------|
B |--------------------------------|----------------------------------|
G |-------7---7----------6---6-----|--------8----8----------4---4-----|
D |-----9---9----9-----8---8---8---|------9---9-----9-----5---5---5---|
A |---9-------10-----9-------------|---12--------10-----7-------------|
E |--------------------------------|----------------------------------|


e |----------------------------------|-------------------------------|
B |----------------------------------|---0---0---0---------3---2-----|
G |--------4----4----------4---4-----|-----0---0---0-----------------|
D |---5--5----5---5----4-4---4---4---|---2-------------4-4---4---4---|
A |-------------7----------5---------|-------------------------------|
E |----------------------------7-----|-------------------------------|


e |---------------------------------|-------------------------------|
B |---------------------------------|-------------------------------|
G |-------7---7-----------6---6-----|-------8---8---------9---9-----|
D |-----9---9----9------8---8---8---|-----9---9---9-----9---9---9---|
A |---9-------10------9-------------|---9-------------7-------------|
E |---------------------------------|-------------------------------|


e |----------------------------------|------------------------------7---|
B |----------------------------------|----------------------------7-----|
G |--------9-----------7-------------|---------------3----------7-------|
D |------9---9-----9-------9---9-----|-----2-4-2---4------9---9---------|
A |---10---------7-------9---9---9---|---4---------5--------------------|
E |----------------------------------|--------------------7-------------|

   Em               Bm                 F#              Bm
e |-----------------------------------|-----------------------------------|
B |-------0-------0-------3-------3---|-------2-------2-------3-------3---|
G |-------0-------0-------4-------4---|-------3-------3-------4-------4---|
D |-------2-------2-------4-----4-----|-------4-----4---------4-----4-----|
A |-------------2-----2-------2-------|---4-------4-------2-------2-------|
E |---0-------0-----------------------|-----------------------------------|


   Em               Bm
e |-----------------------------------|-----------------------------2---|
B |-------0-------0-------3-------3---|-----------------------------2---|
G |-------0-------0-------4-------4---|---4---4---4---4---4---4-----3---|
D |-------2-------2-------4-----4-----|-----3---3---3---3---3---3---4---|
A |-------------2-----2-------2-------|---4-------5---4-------5-----4---|
E |---0-------0-----------------------|---------------------------------|


[Verse 2]
(Choir)
e |------------------------------------|-----------------------------------|
B |------------------------------------|-----------------------------------|
G |---------8----8-----------7---7-----|---------9----9----------5---5-----|
D |------10---10----10-----9---9---9---|------10---10----10----6---6---6---|
A |---10---------11-----10-------------|---13---------11-----8-------------|
E |------------------------------------|-----------------------------------|


e |-------------------------------|-------------------------------|
B |-------------------------------|---1---1---1---------4---3-----|
G |-------5---5---------5---5-----|-----1---1---1-----------------|
D |---6-6---6---6---5-5---5---5---|---3-------------5-5---5---5---|
A |-----------8---------6---------|-------------------------------|
E |-------------------------8-----|-------------------------------|


e |-------------------------------------|--------------------------------------|
B |-------------------------------------|--------------------------------------|
G |---------8----8------------7---7-----|---------9----9-----------10---10-----|
D |------10---10----10------9---9---9---|------10---10---10-----10---10---10---|
A |---10---------11------10-------------|---10----------------8----------------|
E |-------------------------------------|--------------------------------------|


e |-----------------------------------------|----------------------------------|
B |-----------------------------------------|---------------7--------4---3-----|
G |---------10------------8-----------------|-------5-----5--------------------|
D |------10----10----10-------10----10------|-----4-----7--------5-5---5---5---|
A |---11-----------8-------10----10----10---|---5------------------------------|
E |-----------------------------------------|----------------------------------|


e |-------------------------------------|--------------------------------------|
B |-------------------------------------|--------------------------------------|
G |---------8----8------------7---7-----|---------9----9-----------10---10-----|
D |------10---10----10------9---9---9---|------10---10---10-----10---10---10---|
A |---10---------11------10-------------|---10----------------8----------------|
E |-------------------------------------|--------------------------------------|


e |-----------------------------------------|--------------------------------8---|
B |-----------------------------------------|------------------------------8-----|
G |---------10------------8-----------------|---------------4------------8-------|
D |------10----10----10-------10----10------|-----3-5-3---5------10---10---------|
A |---11-----------8-------10----10----10---|---5---------6----------------------|
E |-----------------------------------------|--------------------8---------------|


e |-----------------------------|---------------------------3---|
B |---8---8---6---8---8---6-----|---4---4---4-----4-------4-----|
G |-----5---5---5---5---5---5---|---5---5---5-----5-----5-------|
D |---8-------6---8-------6-----|-----6---6-5-h6--5---5---------|
A |-----------------------------|-------------------------------|
E |-----------------------------|-------------------------------|


e |------------------------------|----------------3---------8---|
B |---6-----6--------------------|---4-----4-4----5-------8-----|
G |-------5------5----4----------|---5---5---5----5-----9-------|
D |-----6------5----5----8-8-6---|---6-6-----5-h6-5---10--------|
A |------------------------------|------------------------------|
E |------------------------------|------------------------------|


e |-----------------------------|------------------------------|
B |---8---8---6---8---8---6-----|---4-------4----4-------------|
G |-----5---5---5---5---5---5---|---5---5---5----5---5---5-----|
D |---8-------6---8-------6-----|-----6---6-5-h6---5---5---5---|
A |-----------------------------|------------------------6-----|
E |-----------------------------|------------------------------|


e |-----------------------------3---|
B |-----------------------------3---|
G |---5---5---5---5---5---5-----4---|
D |-----4---4---4---4---4---4---5---|
A |---5-------6---5-------6-----5---|
E |---------------------------------|


[Final Verse]
e |----------------------------------------|-----------------------------|
B |----------------------------------------|---6-------6-----------------|
G |---9------9---9-----8-----8-----8-------|---6---6---6---6---6---6-----|
D |---11---11----11----10----10----10------|---9-9---6-7-9-7---7---7-----|
A |---11-11------12-12----11----11----11---|-----------------9---9---9---|
E |----------------------------------------|-----------------------------|

e |---------------0-----0-----|-----------------------------|
B |---7---7-------2---2---2---|---2---2---2---4---4---4-----|
G |---6---6---6---1-1---1-----|---2---2---2---5---5---5-----|
D |-----7---7-7---------2-----|-----4---4---4---6---6---6---|
A |-----------9-9-------------|-----------------------------|
E |---------------------------|-----------------------------|

e |-----------------------------------------|-----------------------------|
B |-----------------------------------------|---6-------6---2---2---2-----|
G |---9-------9---9-----8-----8-----8-------|---6---6---6---3---3---3-----|
D |---11---11-----11----10----10----10------|---6-9-------9---4---4---4---|
A |---11-11-------12-12----11----11----11---|-----------------------------|
E |-----------------------------------------|-----------------------------|

e |---------------0-----0-----|------------------------9---|
B |---7---7---7---2---2---2---|----------------------------|
G |---6---6---6---1-1---1-----|---------------5-6---6------|
D |-----7---7-7---------2-----|-----4-6-4---6---6----------|
A |-----------9-9-------------|---6---------7--------------|
E |---------------------------|----------------------------|


e |---------------------------------|---------------4-------------------9---|
B |---7---7---9---7---7---7---7-----|---5---------5----------9--------9-----|
G |-----6---6---6---6---6---6---6---|-----6-----6----------9--------9-------|
D |---7-------9---7---7-------------|---6-----6---------11-------11---------|
A |---------------------------------|---------------------------------------|
E |---------------------------------|---------------------------------------|


e |-------------------------------4---|
B |---2-2-----2-----------------------|
G |---2-------1-----------6---5-5-----|
D |-------4-----2-------4-------------|
A |---------------4---6---------------|
E |-----------------------------------|


e |-------------------|
B |------10----9------|
G |-------------------|
D |---11----11---11---|
A |-------------------|
E |-------------------|




FOR PART: Rhythm Guitar 2

[Intro]
e |---------------|---------------|---------------|---------------|
B |-----8---7-----|-----8---7-----|-----8---7-----|-----8---7-----|
G |---7---7---7---|---7---7---7---|---7---7---7---|---7---7---7---| x3
D |---------------|---------------|---------------|---------------|
A |---------------|---------------|---------------|---------------|
E |---------------|---------------|---------------|---------------|


[Verse 1]
e |-----------------------------------|-----------------------------------|
B |-----------------------------------|-----------------------------------|
G |-----------------------------------|-----------------------------------|
D |-----4-------4-------4-7-----5-----|-----2-------0-------2-------4-2---|
A |---2---5---4---4---6-------7-------|-------2-------2-------2-----------|
E |-------------------------------7---|---3-------2-------3-------2-------|

         Bm               F#               
e |-----------------------------------|-----------------------------------|
B |-----------------------------------|-----------------------------------|
G |-----------------------------------|-----------------------3-----------|
D |-----4-------4-------7-4-----5-----|-----2-------2-------4-------4-----|
A |---2---5---4---4---6-------7-------|-------2-------2---1-------2-------|
E |-------------------------------7---|---3-------2-------------------2---|

   Em               Bm                 F#              Bm
e |-----------------------------------|-----------------------------------|
B |-------0-------0-------3-------3---|-------2-------2-------3-------3---|
G |-------0-------0-------4-------4---|-------3-------3-------4-------4---|
D |-------2-------2-------4-----4-----|-------4-----4---------4-----4-----|
A |-------------2-----2-------2-------|---4-------4-------2-------2-------|
E |---0-------0-----------------------|-----------------------------------|


   Em               Bm
e |-----------------------------------|-------------------------------------------|
B |-------0-------0-------3-------3---|-------------------------------------------|
G |-------0-------0-------4-------4---|-------4-------4---------------------------|
D |-------2-------2-------4-----4-----|-----3-------3---------4-------4---4-------|
A |-------------2-----2-------2-------|---------------------4---4-------4---4-----|
E |---0-------0-----------------------|---4-------3-------2-------2-----------2---|

[Verse 2]
(Choir)
e |-----------------------------------|-----------------------------------|
B |-----------------------------------|-----------------------------------|
G |-----------------------------------|-----------------------------------|
D |-----5-------5-------5-8-----6-----|-----3-------1-------3-------5-3---|
A |---3---6---5---5---7-------8-------|-------3-------3-------3-----------|
E |-------------------------------8---|---4-------3-------4-------3-------|

                
e |-----------------------------------|-----------------------------------|
B |-----------------------------------|-----------------------------------|
G |-----------------------------------|-----------------------------------|
D |-----5-------5-------8-5-----6-----|-----6-3-----5-------4-------5-----|
A |---3---6---5---5---7-------8-------|---------------6-------5-------5---|
E |-------------------------------8---|---4-------3-------2-------3-------|

                   
e |-----------------------------------|-----------------------------------|
B |-----------------------------------|-----------------------------------|
G |-----------------------------------|---------------------4-------------|
D |-----5-------5-------8-5-----6-----|-----6-3-----5---------5-----5-----|
A |---3---6---5---5---7-------8-------|---------------6---2-------3-------|
E |-------------------------------8---|---4-------3-------------------3---|


e |-----------------------------------|-----------------------------------|
B |-------1-------1-------4-------4---|-------3-------3-------4-------4---|
G |-------1-------1-------5-------5---|-------4-------4-------5-------5---|
D |-------3-------3-------5-----5-----|-------5-----5---------5-----5-----|
A |-------------3-----3-------3-------|---5-------5-------3-------3-------|
E |---1-------1-----------------------|-----------------------------------|


e |-----------------------------------|-------------------------------------------------|
B |-------1-------1-------4-------4---|-------------------------------------------------|
G |-------1-------1-------5-------5---|-------5-------5---------------------------------|
D |-------3-------3-------5-----5-----|-----4-------4---------5-------5---5---5-----5---|
A |-------------3-----3-------3-------|---------------------5---5-------5---5---5-------|
E |---1-------1-----------------------|---5-------4-------3-------3---------------3-----|


Verse 3
(Final)
e |-----------4-----------4---------------------------|-------------------------------------------------|
B |---------5-----------4-------------2-----------2---|-------------------------------------------------|
G |-------6-----------5-------------1-----------2-----|-----------6-----------6-----------6-------------|
D |-----6-----------6-------------3-----------4-------|-------4-7---------3-6---------4-7---------6-4---|
A |---4-----------6-------------4-----------4---------|-----4-----------4-----------4-----------6-------|
E |---------------------------1-----------2-----------|---5-----------4-----------5-----------4---------|


e |-----------4-----------4---------------------------|-------------------------------------------|
B |---------5-----------4-------------2-----------2---|-------------------------------------------|
G |-------6-----------5-------------1-----------2-----|-----------6-----------6-------5-------1---|
D |-----6-----------6-------------3-----------4-------|-------4-7-----------6-------4-------4-----|
A |---4-----------6-------------4-----------4---------|-----4-----------4-7-------3-------2-------|
E |---------------------------1-----------2-----------|---5-----------4---------------------------|


e |-----------------|-------------------|
B |-----------------|-------------------|
G |-----------2-----|-----1---------1---|
D |-------4-----4---|-------------2-----|
A |-----4---4-------|---4---2---1-------|
E |---2-------------|-------------------|


e |----------------------------|---------------------------------------9----|
B |----------------------------|--------9-------9--------9-------9-----9----|
G |--------2-------1-----------|------9-------9--------9-------9-------9----|
D |-----4--------2---------6---|---11---------------11-----------------11---|
A |---0--------------------6---|-----------11---------------11---------11---|
E |------------4-------4-------|--------------------------------------------|



***********************

| h   Hammer-on

***********************

            
            
Suggest correction
Creating personal tab
Creating personal tab
You can edit any tab online and save it as your Personal.

You can edit, replace or remove any tab part or add personal notes – all changes will be seen only by you.

Personal tabs can be accessed anytime from any device, even offline.
Learn more »
Give kudos to tab author, rate the tab!
1 2 3 4 5
comments
print report bad tab
guest
You may want to rate the tab now too:
select rating
Wanna post a correction for this tab? Suggest correction