Oops, an error
Loading. Please wait.

Anguish - Lucys Song tab

76 views 1 this week
no commentswrite comment
1 2 3 4 5
3 more votes to show rating
add to favorites
×
Save as Personal and add changes to this tab that will be seen only by you. Learn more ›
×
You can save this tab as Personal to edit and correct it or add notes. All changes will be seen only by you. Learn more »
launch autoscroll
font size
0
reset
how to read this tab
guitar tuner
edit
Autoscroll
slow
fast
+/-
esc
set tempo
stop
Author
Difficulty
About this tab version
No capo needed and chords have been simplified. Was this info helpful? Yes No
Lucy's Song from the movie Anguish.
Written by Samuel P. Bush.
Performed by Amberley Gridley and Ryan Simpkins

Not like the movies' version but still okay.
(^) means the lyric comes on the down beat of each new chord

[Intro]
(Pick-up)  |
  G         G         C         D         G
e|---------|---------|---------|---------|---------|
B|---0---0-|---0---0-|---1---1-|---3---3-|---0---0-|
G|---------|---------|---------|---2---2-|---------|
D|---0---0-|---0---0-|---0---0-|-0-------|---0---0-|
A|---------|---------|-3---3---|-----0---|---------|
E|-3---3---|-3---3---|---------|---------|-3---3---|
 
[Verse]
  G              C            D             G
e|-------------|-------------|-------------|--------------|
B|-----0-----0-|-----1-----1-|-----3-----3-|-----0------0-|
G|-------------|-------------|-----2-----2-|--------------|
D|-----0-----0-|-----0-----0-|--0----------|-----0------0-|
A|-------------|--3-----3----|--------0----|--------------|
E|--3-----3----|-------------|-------------|--3-----3-----|
  You and I are together. You're the jewel in my crown.
  ^             ^                    ^           ^
  G              C            D             G
e|-------------|-------------|-------------|--------------|
B|-----0-----0-|-----1-----1-|-----3-----3-|-----0------0-|
G|-------------|-------------|-----2-----2-|--------------|
D|-----0-----0-|-----0-----0-|--0----------|-----0------0-|
A|-------------|--3-----3----|--------0----|--------------|
E|--3-----3----|-------------|-------------|--3-----3-----|
  You and I forever. What goes up must come down.
  ^         ^             ^                 ^
  G              C            D             G
e|-------------|-------------|-------------|--------------|
B|-----0-----0-|-----1-----1-|-----3-----3-|-----0------0-|
G|-------------|-------------|-----2-----2-|--------------|
D|-----0-----0-|-----0-----0-|--0----------|-----0------0-|
A|-------------|--3-----3----|--------0----|--------------|
E|--3-----3----|-------------|-------------|--3-----3-----|
  And you go north till it's south. You come back a-round.
      ^            ^                ^               ^
  G              C            D             G
e|-------------|-------------|-------------|--------------|
B|-----0-----0-|-----1-----1-|-----3-----3-|-----0------0-|
G|-------------|-------------|-----2-----2-|--------------|
D|-----0-----0-|-----0-----0-|--0----------|-----0------0-|
A|-------------|--3-----3----|--------0----|--------------|
E|--3-----3----|-------------|-------------|--3-----3-----|
  I could never leave you, no matter if I tried.
  ^             ^             ^           ^
  G              C            D             G
e|-------------|-------------|-------------|--------------|
B|-----0-----0-|-----1-----1-|-----3-----3-|-----0------0-|
G|-------------|-------------|-----2-----2-|--------------|
D|-----0-----0-|-----0-----0-|--0----------|-----0------0-|
A|-------------|--3-----3----|--------0----|--------------|
E|--3-----3----|-------------|-------------|--3-----3-----|
  And if you'd ever run, I'd retrieve you, to keep you sat-is-fied.
      ^                      ^                ^               ^
  G              C            D             G
e|-------------|-------------|-------------|--------------|
B|-----0-----0-|-----1-----1-|-----3-----3-|-----0------0-|
G|-------------|-------------|-----2-----2-|--------------|
D|-----0-----0-|-----0-----0-|--0----------|-----0------0-|
A|-------------|--3-----3----|--------0----|--------------|
E|--3-----3----|-------------|-------------|--3-----3-----|
  You can run and you can hide, but I'll love you till I die.
  ^               ^                      ^               ^ 

            
            
Suggest correction
Creating personal tab
Creating personal tab
You can edit any tab online and save it as your Personal.

You can edit, replace or remove any tab part or add personal notes – all changes will be seen only by you.

Personal tabs can be accessed anytime from any device, even offline.
Learn more »
Give kudos to tab author, rate the tab!
1 2 3 4 5
comments
print report bad tab
guest
You may want to rate the tab now too:
select rating
Wanna post a correction for this tab? Suggest correction