Oops, an error
Loading. Please wait.

Brokeback Mountain - The Wings tab

100,797 views 51 this week
18 commentsread comments
1 2 3 4 5
x 30
add to favorites
×
Save as Personal and add changes to this tab that will be seen only by you. Learn more ›
×
You can save this tab as Personal to edit and correct it or add notes. All changes will be seen only by you. Learn more »
launch autoscroll
font size
0
reset
how to read this tab
guitar tuner
edit
Autoscroll
slow
fast
+/-
esc
set tempo
stop
Author
First fingerpick this all the way through:

[Part 1] 
e|--X----X----X----x----x---x---x---x--|
B|--0----1----3----6----5---1---1---0--|
G|--X----X----X----x----x---x---x---x--|
D|--X----X----X----x----x---x---x---x--|
A|--X----0----2----5----3---0---0---x--|
E|--3----X----X----x----x---x---x---3--|

[Part 2]
e|--x---x----x----x----x----x----x--|
B|--0---1----0----x----x----x----x--|
G|--x---x----x----2----x----x----x--|
D|--x---x----x----x----2----2----x--|
A|--x---0----x----0----3----3----2--|
E|--3---x----3----x----x----x----3--|

Listen to the song for correct timing

[Part 1] x3
e|--X----X----X----x----x---x---x---x--|
B|--0----1----3----6----5---1---1---0--|
G|--X----X----X----x----x---x---x---x--|
D|--X----X----X----x----x---x---x---x--|
A|--X----0----2----5----3---0---0---x--|
E|--3----X----X----x----x---x---x---3--|

[Part 2] x2
e|--x---x----x----x----x----x----x--|
B|--0---1----0----x----x----x----x--|
G|--x---x----x----2----x----x----x--|
D|--x---x----x----x----2----2----x--|
A|--x---0----x----0----3----3----2--|
E|--3---x----3----x----x----x----3--|
  
[Part 3] x3
     G    A7  C7m  Cm    A   A   A   G   
e|--x----x----x----x----x---x---x---x--|
B|--x----1----3----6----5---5---5---x--|
G|--0----0----0----7----5---5---5---4--|
D|--0----2----0----7----5---5---5---5--|
A|--2----0----2----5----3---3---3---5--|
E|--3----0----x----5----3---3---3---3--|

[Part 4] x2
    G   A7   G   Am   C7   C7    G
e|--x---x----x----x----x----x----3--|
B|--x---1----x----0----0----0----0--|
G|--0---0----0----2----0----0----0--|
D|--0---2----0----2----2----2----0--|
A|--2---0----2----0----3----3----2--|
E|--3---0----3----0----0----0----3--|



************************************

| x  Dead note 

************************************

            
            
Suggest correction
Creating personal tab
Creating personal tab
You can edit any tab online and save it as your Personal.

You can edit, replace or remove any tab part or add personal notes – all changes will be seen only by you.

Personal tabs can be accessed anytime from any device, even offline.
Learn more »
comments
print report bad tab
18 comments total. Showing first comments. show 1 bad comment
+1 reply
mcpowley 10 Jan 31, 2006 09:54 PM

I love this song. Good stuff. The chords at the end sound kinda weird. but pretty darn good./

+1 reply
incubusomaniac 10 Mar 06, 2006 07:34 AM

hey, love this song, i just wanted everyone to knowthat this is just like Black Bird ,by paul macartney(spelling might be wrong)otherwise know as a Beatle, but in a slower motion, check it out you'll see

guest
You may want to rate the tab now too:
select rating
Wanna post a correction for this tab? Suggest correction