Oops, an error
Loading. Please wait.

Cool Hand Luke Theme tab

version 2
version 2

Whole song

1,462 views 12 this week
3 commentsread comments
1 2 3 4 5
2 more votes to show rating
add to favorites
×
Save as Personal and add changes to this tab that will be seen only by you. Learn more ›
×
You can save this tab as Personal to edit and correct it or add notes. All changes will be seen only by you. Learn more »
launch autoscroll
font size
0
reset
how to read this tab
guitar tuner
edit
Autoscroll
slow
fast
+/-
esc
set tempo
stop
Author
Difficulty
-------------------------------------------------------------------------------
                             Cool Hand Luke Theme  - Misc Soundtrack
-------------------------------------------------------------------------------

Tuning: Standard 

This is the theme to Cool Hand Luke (1967), it has a real sweet old sound. 



Barring the second fret on the intro makes this first part easier.   


e|---------------------------------------------------------------------------|
B|-----3------3----3--(3)------3-----3-------3--3-3--------------------------|
G|--2----2-4-----2---------------2-4---4-0-2------0--------------------------|
D|-------------------5---2-3-4----------------2------------------------------|
A|---------------------------------------------------------------------------|
E|---------------------------------------------------------------------------|


This is the haunting part....

e|--2h3p2-0h2---3-2--0h2----2-5------2h3p2-0h2---3-2-0h2-----0---------------|
B|------------------------3-------------------------------3------------------|
G|---------------------------------------------------------------------------|
D|---------------------------------------------------------------------------|
A|---------------------------------------------------------------------------|
E|---------------------------------------------------------------------------|


Utilize the pinky and ring finger to make this part easier. 

e------7--9--10--9p7h9---------------5h7----7--------------------------------|
B---7-------------------10/7-7---7-8-----8----8-7---8/3-3h5----2-3/5-7-------|
G--------------------------------------------------------------2-------------|
D--------------------------------------------------------------2-------------|
A--------------------------------------------------------------0-------------|
E----------------------------------------------------------------------------|

That's it, hope you like it.

************************************

            
            
Suggest correction
Creating personal tab
Creating personal tab
You can edit any tab online and save it as your Personal.

You can edit, replace or remove any tab part or add personal notes – all changes will be seen only by you.

Personal tabs can be accessed anytime from any device, even offline.
Learn more »
Give kudos to tab author, rate the tab!
1 2 3 4 5
comments
print report bad tab
3 comments total.
0 reply
patmycat 10 Jun 03, 2015 05:15 PM

Great Theme huh.
Not a bad attempt but kinda mixed up ...
Correction to first line



B-----3------3----3--(3)------3-----3-------3--3--3
G--2----2-4-----2---------------2-4---4-0-2------0-
D-------------------5---2-3-4-----------------2----

0 reply
joelenfinger 39 Feb 26, 2017 10:26 PM

Thank's pat! I've updated the tab, your way sounds more right!

0 reply
joelenfinger 39 Apr 07, 2017 09:18 PM

thanks! i've updated the tab to your correction, sounds better

guest
You may want to rate the tab now too:
select rating
Wanna post a correction for this tab? Suggest correction