Oops, an error
Loading. Please wait.

Ghostbusters Theme tab

version 1
version 1

Whole song

  • This version is meant to be played on acoustic, bu... Show more

Interactive

311,708 views 576 this week
31 commentsread comments
1 2 3 4 5
x 139
add to favorites
×
Save as Personal and add changes to this tab that will be seen only by you. Learn more ›
×
You can save this tab as Personal to edit and correct it or add notes. All changes will be seen only by you. Learn more »
launch autoscroll
font size
0
reset
how to read this tab
guitar tuner
edit
Autoscroll
slow
fast
+/-
esc
set tempo
stop
GHOSTBUSTERS!

[Main Riff] (All PM)

e|-----------------|
B|-----------------|
G|-4-4--------2--2-|
D|-4-4--------2--2-|
A|-2-2--------0----|
E|-----0-2-4-----4-|

[Melody]
e|----------------------------|-----------------------------|
B|----------------------------|-----------------------------|
G|-----8---6------------------|-----8---6---------------6---|
D|-9-9---9---7---9-9-9-9-7-9--|-9-9---9---7---9-9-9-9-7---9-|
A|----------------------------|-----------------------------|
E|----------------------------|-----------------------------|

[Other cool part]
e|----------------------------------------------|
B|----------------------------------------------|
G|-7-------7-------7-------7-------7------------|
D|-----9-------9-------9-------9------9--7-8-9--|
A|----------------------------------------------|
E|----------------------------------------------|

[Harmonization of above part]
e|-----------------------------------------------------------|
B|-----------------------------------------------------------|
G|-11--------11--------11--------11--------11----------------|
D|------12--------12--------12--------12-------12--10-11-12--|
A|-----------------------------------------------------------|
E|-----------------------------------------------------------|

There's a couple of other parts I don't know properly so sorry about that. Mistakes aside, enjoy!

            
            
Suggest correction
Creating personal tab
Creating personal tab
You can edit any tab online and save it as your Personal.

You can edit, replace or remove any tab part or add personal notes – all changes will be seen only by you.

Personal tabs can be accessed anytime from any device, even offline.
Learn more »
comments
print report bad tab
31 comments total. Showing first comments.
+1 reply
Stranger 10 Feb 04, 2005 07:00 PM

Awesome

+22 reply
ervin_g 10 Apr 15, 2005 08:00 PM

who you gonna call?.....Ghostbusters!!!!!!!!!

+3 reply
Pennywise_90 31 Mar 03, 2006 06:36 AM

i love you for posting this tab, wiked man

guest
You may want to rate the tab now too:
select rating
Wanna post a correction for this tab? Suggest correction