Oops, an error
Loading. Please wait.

Girls Are Like Guns Acoustic tab

67 views 1 this week
no commentswrite comment
1 2 3 4 5
3 more votes to show rating
add to favorites
×
Save as Personal and add changes to this tab that will be seen only by you. Learn more ›
×
You can save this tab as Personal to edit and correct it or add notes. All changes will be seen only by you. Learn more »
launch autoscroll
font size
0
reset
how to read this tab
guitar tuner
edit
Autoscroll
slow
fast
+/-
esc
set tempo
stop
About this tab version
The version differs because there is a small riff between the verse and the chorus and it comes back in the outro. swapped the G for the E7 in the chorus too. Was this info helpful? Yes No
[Intro]  
(arpeggio)
          Bm                            E7                           F#
e|---------2------2-----2------2---------0------0-----0------0----------2------2------2--------2-------------|
B|---------3------3-----3------3---------0------0-----0------0----------2------2------2--------2-------------|
G|---------4------4-----4------4---------1------1-----1------1----------3------3------3--------3-------------|
D|--------------------------------------------0------------0-------------------------------------------------|
A|--------------2------------2---------2------------2------------------------4---------------4---------------|
E|-------2------------2----------------------------------------------2---------------2-----------------------|

[If you use arpeggio for the verse too, the A7 chord sounds better on the fifth fret, otherwise just do 
an open A on the second fret)
(in chorus A sounds better as a major)


Bm
You
                   E7
You think you’re a lion
           A7
Out in the wild
               F#
You need to be tamed

Bm
And ooh
                 E7
Can you hear the sirens?
               A7
I'mma put you under
     F#
Like novocaine




before the chorus: 
      e|----------------------|
      B|----------------------|
      G|----------------------|
      D|---4----2-------------|
      A|------------5----4----|
      E|----------------------|


[Chorus]
  Bm               A
 Boys   are like   rules

                                             G      F#
e|------x-----------------------------0------2-------------------|
B|------0-----------------------------0------2-------------------|
G|------2-----------------------------4------3-------------------|
D|------0-----------------------------5------4-------------------|
A|------2-----------------------------5------4-------------------|
E|------x--------------------------3---------2-------------------|
     They were  made to  be            bro -ken    




  Bm               A
 Boys   are like   rules

                                      G      F#
e|------x-----------------------------0------2-------------------|
B|------0-----------------------------0------2-------------------|
G|------2-----------------------------4------3-------------------|
D|------0-----------------------------5------4-------------------|
A|------2-----------------------------5------4-------------------|
E|------x--------------------------3---------2-------------------|
     They were  made to  be            bro -ken   



 

Bm                  A
Girls  are like     guns

                                      G      F#
e|------x-----------------------------0------2-------------------|
B|------0-----------------------------0------2-------------------|
G|------2-----------------------------4------3-------------------|
D|------0-----------------------------5------4-------------------|
A|------2-----------------------------5------4-------------------|
E|------x--------------------------3---------2-------------------|
       you  better run   when they're smo-kin'  

         




  Bm               A
 Boys   are like   rules

                                      G    F#   Bm
e|------x-----------------------------0----2----2---------------|
B|------0-----------------------------0----2----3---------------|
G|------2-----------------------------4----3----4---------------|
D|------0-----------------------------5----4----4---------------|
A|------2-----------------------------5----4----2---------------|
E|------x-----------------------------3----2----2---------------|
They were    made to   be          bro    -o-    ken





e|------x-----------------------------0------2-------------------|
B|------0-----------------------------0------2-------------------|
G|------2-----------------------------4------3-------------------|
D|------0-----------------------------5------4-------------------|
A|------2-----------------------------5------4-------------------|
E|------x--------------------------3---------2-------------------|
      They were made to be         bro -  ken





      Bm               A
 Boys   are like   rules

e|------x-----------------------------0------2-------------------|
B|------0-----------------------------0------2-------------------|
G|------2-----------------------------4------3-------------------|
D|------0-----------------------------5------4-------------------|
A|------2-----------------------------5------4-------------------|
E|------x--------------------------3---------2-------------------|
         They were made to be         bro-ken



Bm                  A
Girls  are like     guns
      Bm                                        B7m     F#
e|----2-----------------------------------------2-------2-----------------------|
B|----3-----------------------------------------0-------2-----------------------|
G|----4-----------------------------------------2-------3-----------------------|
D|----4-----------------------------------------0-------4-----------------------|
A|----2-----------------------------------------2-------4-----------------------|
E|----2-----------------------------------------x-------2-----------------------|
You better run, run, run, run when they’re      smo-      kin’

Bm             A
Boys are like rules

e|------x-----------------------------0----2----2---------------|
B|------0-----------------------------0----2----3---------------|
G|------2-----------------------------4----3----4---------------|
D|------0-----------------------------5----4----4---------------|
A|------2-----------------------------5----4----2---------------|
E|------x-----------------------------3----2----2---------------|
They were    made to   be          bro    -o-    ken

[Outro]


      e|----------------------|
      B|----------------------|
      G|----------------------|
      D|---4----2-------------|
      A|------------5----4----|
      E|----------------------|


    Bm                                           
 You  Better Run

************************************

| x silent 

************************************

            
            
Suggest correction
Creating personal tab
Creating personal tab
You can edit any tab online and save it as your Personal.

You can edit, replace or remove any tab part or add personal notes – all changes will be seen only by you.

Personal tabs can be accessed anytime from any device, even offline.
Learn more »
Give kudos to tab author, rate the tab!
1 2 3 4 5
comments
print report bad tab
guest
You may want to rate the tab now too:
select rating
Wanna post a correction for this tab? Suggest correction