Oops, an error
Loading. Please wait.

Godfather Theme Acoustic tab

version 9
version 9
14,610 views 630 this week
4 commentsread comments
1 2 3 4 5
x 11
add to favorites
×
Save as Personal and add changes to this tab that will be seen only by you. Learn more ›
×
You can save this tab as Personal to edit and correct it or add notes. All changes will be seen only by you. Learn more »
launch autoscroll
font size
0
reset
how to read this tab
guitar tuner
edit
Autoscroll
slow
fast
+/-
esc
set tempo
stop
Author
Difficulty
-------------------------------------------------------------------------------
THE GODFATHER THEME                     
-------------------------------------------------------------------------------
Tabbed by: JESS AMBITO


Tuning: STANDARD
      Em                       Am         Em                      Am
e|-----0--|----0-3-2-0-3-0--|--2-0------|-----|----0-3-2-0-3-0--|--2--|---------|---------2--|
B|-----0--|--0-----0--------|--1---1-3--|--0--|--0-----0--------|--1--|---------|----1-4--1--|
G|-----0--|--------0--------|--2--------|-----|--------0--------|--2--|--4-3-2--|--2------2--|
D|-----2--|-----------------|-----------|-----|-----------------|-----|---------|------------|
A|-----2--|-----------------|--0--------|-----|-----------------|--0--|------0--|---------0--|
E|-----0--|--------0--------|-----------|--0--|--------0--------|-----|---------|------------|

          Em(Em7)      B7b9                     Em            D7                  G           F
e|---------0--|------------------|-----------|-------||--0-0---------2----|--2-0------|-----------|
B|----1-4--0--|------3-1--0-3-1--|--1--0--0--|-------||------4-3---3---3--|------1-0--|--0-3-0----|
G|--2------0--|----0---2---------|--2--------|-------||----------5--------|-----------|--------2--|
D|------------|--2-----1---------|--1--------|--1-2--||--------0----------|-----------|--------3--|
A|------------|--------2---------|-----------|-------||-------------------|-----------|-----------|
E|---------0--|------------------|-----------|----0--||-------------------|--------3--|--------1--|

          B7                            B7b9                 Em 
e|-------------------||--------||-----------------|----------0--|------|
B|----1---0-------0--||--play--||------3-1-0-3-1--|--1-0-0-4----|------|
G|--2---3-----0-2----||--part--||----0---2--------|--2----------|------|
D|----------1--------||---1----||--2-----1--------|--1----------|------|
A|--------2----------||--again-||--------2--------|-------------|------|
E|-------------------||--------||-----------------|----------0--|------|


************************************

            
            
Suggest correction
Creating personal tab
Creating personal tab
You can edit any tab online and save it as your Personal.

You can edit, replace or remove any tab part or add personal notes – all changes will be seen only by you.

Personal tabs can be accessed anytime from any device, even offline.
Learn more »
comments
print report bad tab
4 comments total. Showing first comments.
0 reply
covert1980 10 Jan 08, 2016 09:21 AM

if I'm looking for Godfather Theme why I'm listing to adale

0 reply
777kazik 10 Sep 13, 2017 03:41 AM

Best tab until now, because of the full chords in it! Thank you.. I like especially the B7b9.. Can you imagine that there could be a version with even chords? That would be awesome!

0 reply
777kazik 10 Sep 13, 2017 03:42 AM

*even more chords

guest
You may want to rate the tab now too:
select rating
Wanna post a correction for this tab? Suggest correction