Oops, an error
Loading. Please wait.

Godfather Theme tab

version 1
version 1

Interactive

107,212 views 51 this week
14 commentsread comments
1 2 3 4 5
x 57
add to favorites
×
Save as Personal and add changes to this tab that will be seen only by you. Learn more ›
×
You can save this tab as Personal to edit and correct it or add notes. All changes will be seen only by you. Learn more »
launch autoscroll
font size
0
reset
how to read this tab
guitar tuner
edit
Autoscroll
slow
fast
+/-
esc
set tempo
stop
#----------------------------------PLEASE NOTE---------------------------------#
#This file is the author's own work and represents their interpretation of the #
#song. You may only use this file for private study, scholarship, or research. #
#------------------------------------------------------------------------------##
From: "Bernardo Siu F." 


                             THE GODFATHER

    This is a nice, small piece to play, the main theme from the movie.
Spaces between notes are absolutely meaningless!

e:--------------------|---------------|---------------------|---------------|
B:------1--0-----1----|-0-------------|-------1--0-----1----|-0-------------|
G:---2--------2-----2-|----2-----0----|----2--------2-----2-|----2----------|
D:2-------------------|-------3-----2-|-2-------------------|-------3--2--0-|
A:--------------------|---------------|---------------------|---------------|
E:--------------------|---------------|---------------------|---------------|

e:-------------|------------|---------------------|--------------|
B:-----------0-|------------|---------------------|--------------|
G:--------2----|-------1--2-|-------0--------0----|--------------|
D:--0--3-------|-0--3-------|----------3--2-----3-|-3--2---------|
A:-------------|------------|-0--3----------------|-------2--3--0|
E:-------------|------------|---------------------|--------------|

-- 
This signature is provided AS IS, with no warranty, either explicit or
implicit of any kind. You have a 15 second trial period. If you keep
looking it for any longer, you have to pay a license for it. Send check
or money order to Bernardo Siu (bsiu@ing.puc.cl), DCC, PUC, Chile. See
http://www.ing.puc.cl/~bsiu for more details.


            
            
Suggest correction
Creating personal tab
Creating personal tab
You can edit any tab online and save it as your Personal.

You can edit, replace or remove any tab part or add personal notes – all changes will be seen only by you.

Personal tabs can be accessed anytime from any device, even offline.
Learn more »
comments
print report bad tab
14 comments total. Showing first comments.
+3 reply
StreamLine 30 Dec 15, 2002 07:00 PM

great tab for a great melody. well done.

+1 reply
NooNeedForAsN 10 Jul 03, 2003 08:00 PM

sweet tab man

+6 reply
ducttape83 10 Sep 04, 2003 08:00 PM

Great Job, here's the brdige in case anybody wants it:
G-2-2-1-0--4-4-2--------0--------------
D----------------3-2--2---2-0--0-3-1-2-
(double dashes mean slight pause)

guest
Wanna post a correction for this tab? Suggest correction