Oops, an error
Loading. Please wait.

Hamilton - Its Quiet Uptown tab

version 1
version 1

Whole song

  • Added measure lines to necessary places.
340 views 27 this week
no commentswrite comment
1 2 3 4 5
1 last vote to show rating
add to favorites
×
Save as Personal and add changes to this tab that will be seen only by you. Learn more ›
×
You can save this tab as Personal to edit and correct it or add notes. All changes will be seen only by you. Learn more »
launch autoscroll
font size
0
reset
how to read this tab
guitar tuner
edit
Autoscroll
slow
fast
+/-
esc
set tempo
stop
About this tab version
Added measure lines to necessary places. Was this info helpful? Yes No
(Harmony)
[Intro]
   F         *
e|-1-1-1-1------------------------------------------------------------------|
B|---------1-1-1-1----------------------------------------------------------|
G|-----------------2-2-2-2-0-3-3--------------------------------------------| Repeat twice then stop
D|--------------------------------------------------------------------------| note (*)
A|--------------------------------------------------------------------------| 
E|--------------------------------------------------------------------------|

(Vocals)
[Hook]
  *                let ring                    *let ring
e|-1-1-1-1-1-1-1-3-0-|-0-0-0-0-0-0-0-0---0-3-3-1-|-3-5-3-5-3-5-3-1-----------|
B|-------------------|-----------------3---------|-----------------3---------|
G|-------------------|---------------------------|---------------------------|
D|-------------------|---------------------------|---------------------------|
A|-------------------|---------------------------|---------------------------|
E|-------------------|---------------------------|---------------------------|

There are moments that the words don't reach
There is suffering too terrible to name
You hold your child as tight as you can
--Second round--
The moments when you're in so deep
It feels easier to just swim down

                      Play * to *     let ring
e|3-5-3-5-3-5-3-5-3-3-1-|----------------------------------------------------|
B|----------------------|-3-3-3-3-3-5-6-6-6-8-6-10-10-8-10-8-10-8-6-6--------|
G|----------------------|-3--------------------------------------------------|
D|----------------------|----------------------------------------------------|
A|----------------------|----------------------------------------------------|
E|----------------------|----------------------------------------------------|

And push away the unimaginable
(got to --Second round--
The Hamiltons move uptown
And learn to live with the unimaginable

[Verse]
e|-------------------------|-----------------|-------------------------------|
B|-------------------------|-----------------|-------------------------------|
G|-------10-10-10-12-12-10-|---9----9-9-10-7-|-------14-12-12-12-------------|
D|-10-10-------------------|-10---10---------|-10-10-------------------------|
A|-------------------------|-----------------|-------------------------------|
E|-------------------------|-----------------|-------------------------------|

I spend hours in the garden
I walk alone to the store
And it's quiet uptown

e|--------------------------|------------------------------------------------|
B|-8-10-10-10-10-10-8-------|----------------------8-8-----------------------|
G|--------------------10----|----------10-10-10-10-----9-9-------------------|
D|-----------------------10-|-10-10-10---------------------------------------|
A|--------------------------|------------------------------------------------|
E|--------------------------|------------------------------------------------|

I never liked the quiet before
I take the children to church on Sunday

                                let ring                    let ring
e|----------------------|----------|-----------------------------------------|
B|---------------8-8----|-------10-|-10-10-10-10-10-10-8---------------------|
G|----9-9----9-9-----10-|----------|---------------------10------------------|
D|-10-----10------------|-10-10----|------------------------10---------------|
A|----------------------|----------|-----------------------------------------|
E|----------------------|----------|-----------------------------------------|

A sign of the cross at the door
And I pray
That never used to happen before

[Chorus]
e|-----1-1-1-3-5-|-5-3-3-3-3-|-5-3-3-3-3-5-5-3-------------------------------|
B|-1-1-----------|-----------|-----------------------------------------------|
G|---------------|-----------|-----------------------------------------------|
D|---------------|-----------|-----------------------------------------------|
A|---------------|-----------|-----------------------------------------------|
E|---------------|-----------|-----------------------------------------------|

If you see him in the street, walking by
Himself, talking to himself, have pity
                                                       let ring
e|------------------------------|-------5-3-5-3-5-3-5-3-5-3-1-1--------------|
B|-------13-10-10-8-------13-10-|-8-8-8--------------------------------------|
G|-10-10------------10-10-------|--------------------------------------------|
D|------------------------------|--------------------------------------------|
A|------------------------------|--------------------------------------------|
E|------------------------------|--------------------------------------------|

Philip, you would like it uptown
It's quiet uptown
He is working through the unimaginable

e|---5-3-3-3-|-1-5-3-3-3-3-3-|-1-5-3-5-3-5-5-3-5-3---------------------------|
B|-1---------|---------------|-----------------------------------------------|
G|-----------|---------------|-----------------------------------------------|
D|-----------|---------------|-----------------------------------------------|
A|-----------|---------------|-----------------------------------------------|
E|-----------|---------------|-----------------------------------------------|

His hair has gone grey. He passes every day
They say he walks the length of the city

           let ring                let ring
e|-1---------------|---5-3-5-3-----------------------------------------------|
B|---3-1-3-1-3-1---|-1-------------------------------------------------------|
G|---------------2-|---------------------------------------------------------|
D|-----------------|---------------------------------------------------------|
A|-----------------|---------------------------------------------------------|
E|-----------------|---------------------------------------------------------|

You knock me out, I fall apart
Can you imagine?

[Verse]
                Repeat once
e|-----------------------------------|---------------------------------------|
B|---------------|-------------------|---------------------------------------|
G|-----5-2-2-0---|---0-2---2-0-------|-------------5-2-2---------------------|
D|-3-3---------3-|-3-----3-----3-0---|---3-3-3-------------------------------|
A|---------------|-----------------3-|-3-------3-3---------------------------|
E|-----------------------------------|---------------------------------------|

Look at where we are
Look at where we started
I know I don't deserve you, Eliza
But hear me out. That would be enough

             Repeat once
e|-----------------------|-------------|-------------------------------------|
B|---------3---|---------|-------------|-------------------------------------|
G|-------5---2-|-2-0-3-2-|-------0-2-2-|-----2-2-0-0---5-2-2-----------------|
D|-3-3-3-------|---------|-3---3-------|---3---------3-----------------------|
A|-------------|---------|---3---------|-3-----------------------------------|
E|-----------------------|-------------|-------------------------------------|

If I could spare his life
If I could trade his life for mine
He'd be standing here right now
And you would smile, and that would be enough

e|-------------|---------------|------------1---------|----------------------|
B|-------------|---------------|----------1---------1-|----------------------|
G|-------------|---------0-2-2-|------0-2-----3-3-2---|-3-2-0----------------|
D|-------2-3-0-|-0-0-0-3-------|-3-3------------------|----------------------|
A|-3-3-3-------|---------------|----------------------|------3---------------|
E|-------------|---------------|----------------------|----------------------|

I don't pretend to know
The challenges we're facing
I know there's no replacing what we've lost
And you need time

                                                  let ring
e|---------------|-------------|---------------------|-----------------------|
B|-----1---------|-1-1---------|---------------------|-----1-----------------|
G|-------2-2-0---|-----2-2-2-0-|-----------0-2-2-0---|-------2-2-------------|
D|-------------3-|-------------|-3-3---3-3---------3-|-3---------------------|
A|-3-3-----------|-------------|-----3---------------|---3-------------------|
E|---------------|-------------|---------------------|-----------------------|

But I'm not afraid
I know who I married
Just let me stay here by your side
That would be enough

[Chorus]
e|-----1-1-1-3-5-|-5-3-3-3-3-|-5-3-3-3-3-5-5-3-------------------------------|
B|-1-1-----------|-----------|-----------------------------------------------|
G|---------------|-----------|-----------------------------------------------|
D|---------------|-----------|-----------------------------------------------|
A|---------------|-----------|-----------------------------------------------|
E|---------------|-----------|-----------------------------------------------|

If you see him in the street, walking by her
Side, talking by her side, have pity

                                                       let ring
e|---------------------------------|-5-3-5-3-5-3-5-3-5-3-1-1-----------------|
B|----------13-10-10-8-------13-10-|-----------------------------------------|
G|-10-10-10------------10-10-------|-----------------------------------------|
D|---------------------------------|-----------------------------------------|
A|---------------------------------|-----------------------------------------|
E|---------------------------------|-----------------------------------------|

Eliza, do you like it uptown
It's quiet uptown
They are trying to do the unimaginable

e|-----1-1-1-3-5-|-5-3-3-3-|-5-3-3-3-|-5-3-5-3-5-5-3-5-3---------------------|
B|-1-1-----------|---------|---------|---------------------------------------|
G|---------------|---------|---------|---------------------------------------|
D|---------------|---------|---------|---------------------------------------|
A|---------------|---------|---------|---------------------------------------|
E|---------------|---------|---------|---------------------------------------|

See them walking in the park, long after dark
Taking in the sights of the city

e|-------------------1-------------------------------------------------------|
B|-----1-------1-------1-1---------------------------------------------------|
G|-2-3---2-2-3---2-2---------------------------------------------------------|
D|---------------------------------------------------------------------------|
A|---------------------------------------------------------------------------|
E|---------------------------------------------------------------------------|

Look around, look around, Eliza

                                                       let ring
e|-5-3-5-3-5-3-5-3-5-3-1-1---------------------------------------------------|
B|---------------------------------------------------------------------------|
G|---------------------------------------------------------------------------|
D|---------------------------------------------------------------------------|
A|---------------------------------------------------------------------------|
E|---------------------------------------------------------------------------|

They are trying to do the unimaginable

[Hook]
  *                let ring                    *let ring
e|-1-1-1-1-1-1-1-3-0-|-0-0-0-0-0-0-0-0---0-3-3-1-----------------------------|
B|-------------------|-----------------3-------------------------------------|
G|-------------------|-------------------------------------------------------|
D|-------------------|-------------------------------------------------------|
A|-------------------|-------------------------------------------------------|
E|-------------------|-------------------------------------------------------|

There are moments that the words don't reach
There is a grace too powerful to name

e|3-5-3-5-3-5-3-5-3-5-3-5-3-|-3-5-3-5-3-5-3-5-3-3-1--------------------------|
B|--------------------------|------------------------------------------------|
G|--------------------------|------------------------------------------------|
D|--------------------------|------------------------------------------------|
A|--------------------------|------------------------------------------------|
E|--------------------------|------------------------------------------------|

We push away what we can never understand
We push away the unimaginable
                 let ring                        let ring
e|-----1-1-1-3-3-1-|-0-0-0-0-0-0-0-3-3-1-|---1-3-5--|---8-5-5-5--------------|
B|-1-1-------------|---------------------|-1--------|-6----------------------|
G|-----------------|---------------------|----------|------------------------|
D|-----------------|---------------------|----------|------------------------|
A|-----------------|---------------------|----------|------------------------|
E|-----------------|---------------------|----------|------------------------|

They are atanding in the garden
Alexander by Eliza's side
She takes his hand
It's quiet uptown

[Outro]
                       Repeat once
e|-5-5---|--------------|--|
B|-6-6-6-|-8-10-8-10-8--|--|
G|-----5-|--------------|--|
D|-------|--------------|--|
A|-------|--------------|--|
E|-------|--------------|--|

Forgiveness. Can you imagine?
Forgiveness. Can you imagine?

e|-----1-1-1-3-5-|-5-3-3-3-3--5-3-3-3-3-5-5-3--------------------------------|
B|-1-1-----------|-----------------------------------------------------------|
G|---------------|-----------------------------------------------------------|
D|---------------|-----------------------------------------------------------|
A|---------------|-----------------------------------------------------------|
E|---------------|-----------------------------------------------------------|

If you see him in the street, walking by her
Side, talking by her side, have pity

                         let ring
e|-5-3-5-3-5-3-5-3-5-3-1-1---------------------------------------------------|
B|---------------------------------------------------------------------------|
G|---------------------------------------------------------------------------|
D|---------------------------------------------------------------------------|
A|---------------------------------------------------------------------------|
E|---------------------------------------------------------------------------|

They are going through the unimaginable

(Harmony)
[Outro]
                                                     F (Slow Strum)
e|-1-1-1-1---------------------------------------|---1-----------------------|
B|---------1-1-1-1-------------------------------|---1-----------------------|
G|-----------------2-2-2-2-0---------------------|---2-----------------------|
D|---------------------------3-3-3-3-------------|---3-----------------------|
A|-----------------------------------3-3-0-0-----|-3-3-----------------------|
E|-------------------------------------------3-1-|---1-----------------------|

            
            
Suggest correction
Creating personal tab
Creating personal tab
You can edit any tab online and save it as your Personal.

You can edit, replace or remove any tab part or add personal notes – all changes will be seen only by you.

Personal tabs can be accessed anytime from any device, even offline.
Learn more »
Give kudos to tab author, rate the tab!
1 2 3 4 5
comments
print report bad tab
guest
You may want to rate the tab now too:
select rating
Wanna post a correction for this tab? Suggest correction