Oops, an error
Loading. Please wait.

Harry Potter - Hedwigs Theme tab

version 13
version 13

Whole song

Video

3,206 views 3 this week
1 commentread comment
1 2 3 4 5
x 4
add to favorites
×
Save as Personal and add changes to this tab that will be seen only by you. Learn more ›
×
You can save this tab as Personal to edit and correct it or add notes. All changes will be seen only by you. Learn more »
launch autoscroll
font size
0
reset
how to read this tab
guitar tuner
edit
Autoscroll
slow
fast
+/-
esc
set tempo
stop
Author
Unregistered
-------------------------------------------------------------------------------
                             Harry Potter Main Theme
-------------------------------------------------------------------------------


e|---0--3p2-0-|-7-5------2---|-0-3p2-------|---------|
B|-0----------|-----0------4-|-------4---6-|-0-------|
G|------------|-------0----4-|---------0---|---0-----|
D|------------|--------------|-------------|-----2---|
A|------------|--------------|-------6-----|---------|
E|---0------0-|---0------2---|-0-----------|-0-----0-|


e|---0--3p2-0-|-7--10-9--8----8-7p6-|---3-0----------|
B|-0----------|----8-----6-9--5-----|-2-----0--------|
G|------------|----8-----6----5-----|-3-------0------|
D|------------|---------------------|-2--------------|
A|------------|---------------------|----------------|
E|---0------0-|---------------------|-----0-----0----|

            
            
Suggest correction
Creating personal tab
Creating personal tab
You can edit any tab online and save it as your Personal.

You can edit, replace or remove any tab part or add personal notes – all changes will be seen only by you.

Personal tabs can be accessed anytime from any device, even offline.
Learn more »
comments
print report bad tab
1 comment total.
0 reply
coryzuber 10 Oct 31, 2015 12:47 AM

the tab is upside down

guest
Wanna post a correction for this tab? Suggest correction