Oops, an error
Loading. Please wait.

Home Depot - Lets Do This tab

version 1
version 1

Whole song

  • Tabbed from the Home Depot commercials Let's Do This.

Interactive

79 views 6 this week
1 commentread comment
1 2 3 4 5
3 more votes to show rating
add to favorites
×
Save as Personal and add changes to this tab that will be seen only by you. Learn more ›
×
You can save this tab as Personal to edit and correct it or add notes. All changes will be seen only by you. Learn more »
launch autoscroll
font size
0
reset
how to read this tab
guitar tuner
edit
Autoscroll
slow
fast
+/-
esc
set tempo
stop
About this tab version
Tabbed from the Home Depot commercials Let's Do This. Was this info helpful? Yes No
This is a great little instrumental rock riff with a little syncopation
giving it a reggae-ish feel. I tabbed it from the Home Depot commercials
"Let's Do This!" with the help of Amazing Slow Downer and Guitar Pro.

I wish I knew the original composer so I could credit him/her, but
Home Depot ain't tellin'.

This song is in straight 4/4 using mostly 8th notes and the key of A minor.
Play both parts on an overdriven guitar.

Rhythm Guitar -- easy open strings. Play all parts with palm mute
with accents on the fretted notes. Pick steadily with an up/down rhythm.
Notice there are 1/8 note rests after most of the upstrokes on the open A
string.

[Intro]
e |--------------------------|--------------------------|
B |--------------------------|--------------------------|
G |--------------------------|--------------------------| 2x
D |--------------------------|--------------------------|
A |--0--0--5>-0-----0-----0--|--3--0-----0-----0-----0--|
E |--------------------------|--------------------3>----|

e |--------------------------|--------------------------|
B |--------------------------|--------------------------|
G |--------------------------|--------------------------|
D |--------------------------|--------------------------|
A |--0--0--5>-0-----0-----0--|-----0-----0-----0-----0--|
E |--------------------------|--------------------3>----|

e |--------------------------|
B |--------------------------|
G |--------------------------|
D |--------------------------|
A |--0--0--5>-0--------------|
E |--------------------------|

[Main theme]
e |--------------------------|--------------------------|
B |--------------------------|--------------------------|
G |--------------------------|--------------------------| 4x
D |--------------------------|--------------------------|
A |--0--0--5>-0-----0-----0--|-----0-----0-----0-----0--|
E |--------------------------|--------------------3>----|

> - accented note


Lead Guitar - tacet throughout the intro, except for the last two bars.
Notice that it starts on an off-beat with the first accent on 
an on-beat, followed by an 8th note rest. The second accent is on an off-beat.
I find it easiest to play by barring a Am chord at the 5th fret.

[Intro]

e |--------------------------|
B |--------------------------|
G |--------------------------| 5x
D |--------------------------|
A |--------------------------|
E |--------------------------|

e |--------------------------|---------------------5>-|
B |--------------------------|------------------------|
G |---------------------5h-7-|------7-----5>----------|
D |--------------------------|---7-----7--------7-----|
A |--------------------------|------------------------|
E |--------------------------|------------------------|


[Main theme]

e |----------------------5>--|
B |--------------------------|
G |-------7-----5>-----------| 8x
D |----7-----7--------7------|
A |--------------------------|
E |--------------------------|

h - hammer-on
> - accented note

            
            
Suggest correction
Creating personal tab
Creating personal tab
You can edit any tab online and save it as your Personal.

You can edit, replace or remove any tab part or add personal notes – all changes will be seen only by you.

Personal tabs can be accessed anytime from any device, even offline.
Learn more »
Give kudos to tab author, rate the tab!
1 2 3 4 5
comments
print report bad tab
1 comment total.
0 reply
eddy_currents 62 Jul 05, 2017 08:25 AM

I also created a Guitar Pro version:
https://tabs.ultimate-guitar.com/m/misc_soundtrack/home_depot_-_lets_do_this_guitar_pro.htm

guest
You may want to rate the tab now too:
select rating
Wanna post a correction for this tab? Suggest correction