Oops, an error
Loading. Please wait.

James Bond Theme tab

version 4
6,627 views 9 this week
8 commentsread comments
1 2 3 4 5
x 9
add to favorites
×
Save as Personal and add changes to this tab that will be seen only by you. Learn more ›
×
You can save this tab as Personal to edit and correct it or add notes. All changes will be seen only by you. Learn more »
launch autoscroll
font size
0
reset
how to read this tab
guitar tuner
edit
Autoscroll
slow
fast
+/-
esc
set tempo
stop
James Bond Theme
Standard Tuning

Hola. First tab. Sean Connery Rocks the Casbah. Enjoy.

Intro.

e|------------|
B|------------|
G|------------| 2x
D|------------|  
A|--2---3---4-|
E|---0---0---0|


e|-------------------|
B|-------------------|
G|-------------------| 3x
D|-------------------|
A|--222-3333-444-3333|
E|-------------------|


e|-------------------------------------|
B|-------------------------------------|
G|-------------------------------------|2x
D|-------------------------------------|
A|-------------------------------------|
E|--0-2-2-2-2-0-0-0---0-3-3-3-3-2-2-2--|

e|----------------------------------------------|
B|----------------------------------------------|
G|----------------------------------------------|
D|-------------------------------------1-0------|
A|-----------------------------------------2-0-2|
E|--0-2-2-2-2-0-0-0---0-3-3-3-3-2-1-0-----------|

Trumpet Part

e|------10-9-----------------------------|
B|----8-----------8-9-------8---9-7------|
G|--9----------9--------------------7-8-9|
D|---------------------------------------|
A|---------------------------------------|
E|---------------------------------------|

You can either do any of the following things again or 
go straight to the ending which is...

Strum Slowly...

e|--0--|
B|--0--|
G|--0--|
D|--4--|
A|--2--|
E|--0--|

Cheers.

            
            
Suggest correction
Creating personal tab
Creating personal tab
You can edit any tab online and save it as your Personal.

You can edit, replace or remove any tab part or add personal notes – all changes will be seen only by you.

Personal tabs can be accessed anytime from any device, even offline.
Learn more »
comments
print report bad tab
8 comments total. Showing first comments.
0 reply
ghislain 110 Sep 20, 2003 08:00 PM

best bond tab i've read so far

+1 reply
ghislain 110 Sep 20, 2003 08:00 PM

except for the intro, it should be
A:--2---3---4---3
E:---0---0---0---0
you forgot 2 notes

0 reply
ghislain 110 Sep 25, 2003 08:00 PM

on second thought, you also forgot to mention that the intro
is played by a rhytme guitar that keeps on playing except for when the trumpets play. so one must play with 2 guitars to make it
sound right. and the part you write saying play 3x,
is just a variation on the intro. listen carefully to the cd, and
you \'ll know i\'m right. there is also a part missing in the trumpet peace you trancribed, otherwise it\'s a great tab. cause you\'re the first one to get the rytme guitar part right.
do\'nt know how this got 5 stars thow, but keep up the good work.
not bad for a first tab. if it really is your first.

guest
Wanna post a correction for this tab? Suggest correction