Oops, an error
Loading. Please wait.

La La Land - City Of Stars tab

version 6
version 6

Whole song

  • The fingerstyle Tab i arranged for my youtube chan... Show more
  • This is a really accurate tab from the La La Land ... Show more
  • In the original key, follows piano line pretty exa... Show more
  • This specific tab is based off this cover (https:/... Show more
  • This version was made by Kangho Lee.

Interactive

12,289 views 141 this week
1 commentread comment
1 2 3 4 5
x 9
add to favorites
×
Save as Personal and add changes to this tab that will be seen only by you. Learn more ›
×
You can save this tab as Personal to edit and correct it or add notes. All changes will be seen only by you. Learn more »
launch autoscroll
font size
0
reset
how to read this tab
guitar tuner
edit
Autoscroll
slow
fast
+/-
esc
set tempo
stop
About this tab version
In the original key, follows piano line pretty exactly except it lacks the bass line in the chorus/bridge section. Was this info helpful? Yes No
[Intro]
e|--------------|------------------|
B|--------------|------------------|
G|-----0--0-----|-------0--0-------| x2
D|---0------3-0-|-----0------3-0---|
A|--1-----------|----1-------------|
E|3-------------|--3---------------|

[Verse]
e|--------------|--------------|---------------------|--------------------------|
B|--------------|---------1----|------------3----1---|---------3----1-----------|
G|-----0--------|-------0----3-|----------2--------2-|-------2--------2---------|
D|---0------3-0-|----2---------|------0-3------------|---0-3--------------------|
A|--1-----------|--3-----------|---------------------|--------------------------|
E|3-------------|--------------|---------------------|--------------------------|

 City of stars____ Are you shining just for me

e|---------------|---------------|---------1-1-0----|----------1-1-0------------|
B|---------------|---------1-----|-------1-------1--|-------1--------1----------|
G|------0--------|------0------3-|-----2------------|-----2---------------------|
D|----0-------3-0|----2----------|---3--------------|---3-----------------------|
A|--1------------|--3------------|------------------|---------------------------|
E|3--------------|---------------|------------------|---------------------------|

  City of stars_____ There's so much that I can't see

e|----------------|-------------|-------------------|---------------------------|
B|----------------|-------1-1---|-------1--------1--|-------1-------------------|
G|0-----0--0------|-----0-------|-----2--------2----|-----2---------------------|
D|----0-------3-0-|---2---------|---3--------2------|---1-----------------------|
A|--1-------------|-3-----------|-------------------|---------------------------|
E|----------------|-------------|-------------------|---------------------------|

Who knows?____ I felt it from the first embrace, I shared with you      That 

e|-------------|---0---------|-----------------------|--------------------------|
B|-------------|---0---------|------------3-3-1------|--------------------------|
G|------0------|---0---------|----------2-------2----|----------0---------------|
D|---0-----0---|-------------|------0-3--------------|--------0-----0-----------|
A|0------------|---0---------|-----------------------|------1-------------------|
E|-------------|-------------|-----------------------|----3---------------------|

  Now____ our_  dreams will finally come true

e|----------1-0--|---------------|---------------------|----------1-----0-------|
B|---------------|--------1------|-----------3--3--1---|----------1--3--1--1----|
G|-----0------3--|------0-----3--|--------2--2-------2-|-------2--2-----0-------|
D|---0---3----5--|----2----------|---0-3-----3---------|--0-3-----0-------------|
A|--1------------|-3-------------|---------------------|------------------------|
E|3--------------|---------------|---------------------|------------------------|

  City of stars____ Just one thing everybody wants

e|----------1-0---|----------------|-------------------|------------------------|
B|----------------|-----------1----|-----------1----1--|------------1---1-------|
G|-----0-0----3---|--------0-----3-|-------2-----------|-------2------------2---|
D|---0------3-5---|-----2----------|---3---------------|---2--------------------|
A|--1-------------|---3------------|-------------------|------------------------|
E|3---------------|----------------|-------------------|------------------------|

  There in the bars Or in the smokescreen of the crowded restaurants    It's
e|----------------|----------------|-------------------|----------------5-------|
B|----------------|-------1--------|-------1--------1--|---------1------3-------|
G|------0--0------|-----0----------|-----2--------2----|-------2----------------|
D|----0-------3-0-|---2------------|---3--------2------|-----1------------------|
A|--1-------------|-3--------------|-------------------|------------------------|
E|3---------------|----------------|-------------------|------------------------|

  love.       Yes, all we're looking for is love from someone else        A 

e|----------------|-------------------------|
B|----------------|-------------------------|
G|----------------|--------------0----------|
D|-----------0----|---------2---------2-----|
A|----------------|----1--------------------|
E|3---------------|-------------------------|

 rush  A glance,  a touch    a dance     

[Chorus]
e|-------------------|---------------------|--------------------|---1-----1-----1-----1-----|
B|-3----3----3----3--|----1----1----1----1-|---2-----2----2---2-|---3-----3-----1-----1-----|
G|-3----3----3----3--|----0----0----0----0-|---0-----0----0---0-|---2-----2-----2-----2-----|
D|------3---------3--|---------2---------2-|---------2--------2-|---0-----0-----0-----0-----|
A|-1---------1-------|----3---------3------|---0----------0-----|---------------------------|
E|-------------------|---------------------|--------------------|---------------------------|
   a look in somebody's eyes to light up the skies To open the world and send it reeling 

e|-------------------|---------------------|-----1-----5--5-3--5--5-3-5-3--|
B|-3----3----3----3--|----1----1----1----1-|-----3-----6--6-5--6--6-5---5-6|
G|-3----3----3----3--|----0----0----0----0-|-----2-------------------------|
D|------3---------3--|---------2---------2-|-----0---------------0--0---0--|
A|-1---------1-------|----3---------3------|-------------------------------|
E|-------------------|---------------------|-------------------------------|

  A voice that says I'll be here and you'll be all right

e|-------------------|---------------------|--------------------|---1-----1-----1-----1-----|
B|-3----3----3----3--|----1----1----1----1-|---2-----2----2---2-|---3-----3-----1-----1-----|
G|-3----3----3----3--|----0----0----0----0-|---0-----0----0---0-|---2-----2-----2-----2-----|
D|------3---------3--|---------2---------2-|---------2--------2-|---0-----0-----0-----0-----|
A|-1---------1-------|----3---------3------|---0----------0-----|---------------------------|
E|-------------------|---------------------|--------------------|---------------------------|

   I don't care if I  know just where I will go Cause all that I need's this crazy feeling

e|-------------------|----0^---------------|---------------------|-------------------|
B|-3----3----3----3--|----2^---------------|------------3-3-1----|---------3--3-1----|
G|-3----3----3----3--|----0^---------------|----------2-------2--|------2------------|
D|------3---------3--|----2^---------------|------0-3------------|----3--------------|
A|-1---------1-------|----0^---------------|---------------------|--3----------------|
E|-------------------|---------------------|---------------------|-------------------|

   A rat-tat-tat on my heart  I think I want it to stay

[Verse]
e|----------------|---------------|--------1-1-0---|-----------1-1-0------------|
B|----------------|--------1------|------1-------1-|--------1--------1----------|
G|------0---------|-----0------3--|----2-----------|------2---------------------|
D|----0-------3-0-|---2-----------|--3-------------|----3-----------------------|
A|--1-------------|-3-------------|----------------|----------------------------|
E|3---------------|---------------|----------------|----------------------------|

  City of stars Are you shining just for me

e|----------------|--0--------------|-------------------|-----------1^-----------|
B|----------------|--2--------------|---------3--3--1---|-----------1^-----------|
G|------0--0------|--0--------------|-------2---------2-|--------2--2^-----------|
D|----0-------3-0-|--2--------------|-0--3--------------|--0--3-----0^-----------|
A|--1-------------|--0--------------|-------------------|------------------------|
E|3---------------|-----------------|-------------------|------------------------|

  City of stars You never shined so brightly      

 

************************************

| x  Dead note
 

************************************

            
            
Suggest correction
Creating personal tab
Creating personal tab
You can edit any tab online and save it as your Personal.

You can edit, replace or remove any tab part or add personal notes – all changes will be seen only by you.

Personal tabs can be accessed anytime from any device, even offline.
Learn more »
comments
print report bad tab
1 comment total.
0 reply
darica.louie 43 Jan 31, 2017 11:42 PM

The 3rd to last measure should be an A7 chord so 2nd fret of the D string not 1st fret. The tab editor is not loading for me at the moment, but I'll fix it when I get the chance

guest
You may want to rate the tab now too:
select rating
Wanna post a correction for this tab? Suggest correction