Oops, an error
Loading. Please wait.

La La Land - City Of Stars tab

version 7
version 7

Whole song

  • The fingerstyle Tab i arranged for my youtube chan... Show more
  • This is a really accurate tab from the La La Land ... Show more
  • In the original key, follows piano line pretty exa... Show more
  • This specific tab is based off this cover (https:/... Show more
  • This version was made by Kangho Lee.

Interactive

15,250 views 1,323 this week
2 commentsread comments
1 2 3 4 5
x 18
add to favorites
×
Save as Personal and add changes to this tab that will be seen only by you. Learn more ›
×
You can save this tab as Personal to edit and correct it or add notes. All changes will be seen only by you. Learn more »
launch autoscroll
font size
0
reset
how to read this tab
guitar tuner
edit
Autoscroll
slow
fast
+/-
esc
set tempo
stop
---------------------------------------------------------------------------
City of Stars (Acoustic Cover): https://www.youtube.com/watch?v=-RXfA84qg0c
---------------------------------------------------------------------------
CREDIT TO ELIJAH PARK
*refer to video for details and style

Tabbed by: Justoin
Tuning: Standard
 
Capo on the 3rd Fret (fret numbers relative to capo)

D - x54232
D/F# - 2x232x

[Introduction]
   Em (4x)
e|-----------0---0--------|
B|--------0---------3--0--|
G|-----0------------------|
D|--2----------2----------|
A|------------------------|
E|--0---------------------|

[Verse 1]
                  (Strum Like)
   Em             A7    ↓                   Bm (2x)
e|--------------|-------------------------|------------------------|
B|-----------0--|-------2--3--0--2--------|------------------------|
G|--------0-----|-------0-----------2--4--|-----------4---4p2------|
D|--2--h4-------|-------2-----------------|-----0--4------------4--|
A|--------------|----0--------------------|--2----------2----------|
E|--0-----------|-------------------------|------------------------|

                  (Strum Like)
   Em             A7    ↓                   D                                       
e|--------------|-------------------------|-----------------------|-------------------------------------|
B|-----------0--|-------2--3--0--2--------|-----------3---3p2-----|-----------3---3----------0----------|
G|--------0-----|-------0-----------2--4--|--------2-----------2--|--------2----------------0----0------|
D|--2--h4-------|-(0)---2-----------------|-----4-----------------|-----4-----------4--5--5-------5-0---|
A|--------------|----0--------------------|--5----------5---------|--5----------5--------------------0--|
E|--0-----------|-------------------------|-----------------------|--------------------0----0-----------|
                                                                                    
                                           (Strum Like)
   A                                         D/F#↓                                         
e|----------------------------------|--2p0--------------0h2p0-----|
B|----------------------------------|--------0---2-------------3--|
G|-2--4p2--4p2--4-------------------|--------0---3---3------------|
D|-2-----------------4-4-4---4-4-4--|-------0----2----------------|
A|-----------------5--5--4-4-----3--|-----------------------------|
E|----------------------------------|----0-------2----------------|
                                    

   Bm 
e|------------------------|-----------------------|
B|------------------------|-----------------------|
G|-----------4---4p2------|-----------4---4p2-----|
D|-----0--4------------4--|-----0--4-----------4--|
A|--2----------2----------|--0----------0---------|
E|------------------------|-----------------------|

[Verse 2]
                      (Strum Like)
   Em                   A7  ↓                   Bm
e|--------------------|-----------------------|------------------------|-----------------------|
B|----------0---------|-----2--3--0--2--------|------------------------|-----------------------|
G|-------0--------0---|-----0-----------2--4--|-----------4---4p2------|-----------4---4p2-----|
D|--2/4----------4-4--|-----2-----------------|-----0--4------------4--|-----0--4-----------4--|
A|--------------------|--0--------------------|--2----------2----------|--0----------0---------|
E|--0-----------0-----|-----------------------|------------------------|-----------------------| 


   Em                   A                       D                        
e|--------------------|-----------------------|-----------------------------|
B|----------0---------|-----3-2--3----2-------|-----------------------------|
G|-------0--------0---|-----2-2--2-3----2--3--|----------------2------------|
D|--2/4----------4-4--|-----2-2----2----------|-----4---0--4----4---4---4---|
A|--------------------|--0--------------------|--5---5--------5---4---4-----|
E|--0-----------0-----|-----------------------|-----------------------------|
                                                                          
    
                        A                          D                 
e|--------------------|--------------------------|-----------------------------|
B|------------0-------|--------------------------|-----------------------------|
G|----------0----0----|-------2---h4-p2h4p2---4--|-----------------------------|
D|---4--5-------5-5---|-----2---------------0----|-----4---4-4--4-5-4---4---4--|
A|--4-----------------|--0-----------------------|--5---5----4--------3---3----|
E|------0----0--------|--------------------------|-----------------------------|
                                                                       
                                                   
[Chorus]
       lightstrum weakstrum
            ↓         ↓ ↑     G           A            D/F#            Bm A/C#
e|--2p0--0----------2-2-x--|------------------------------|-----------------------------|
B|--------0-0--0----2-2-x--|--0-0---0---0-2--2--2--2-2----|--2--2----2--3--2------------|
G|--------0-0--0--3-3-3-x--|--0-0---0-2---2--2--2-4--2----|--3--3--4----2--2---4--------|
D|--------2-2----2------x--|--0-0---0--------2--2-2-------|--2--2---------------4--(4)--|
A|----------------------x--|---------------0--0-----------|------------2--4--5-5--------|
E|----0---------2-------2--|--3--3---------------------2--|----2------------------------|

    G           A            Bm                     
e|-------------------------|--------------2---2----2----------|
B|--0-0---0---0-2--2--2--2-|--------------3---3--3---5-3------|
G|--0-0---0-2---2--2--2-4--|-------2-2-----------2------------|
D|--0-0---0--------2-------|--4--4-4-4p2-4-x-----4-------(4)--|
A|---------------0--0------|-----2--2------x-2--2-------------|
E|--3--3-------------------|----------------------------------|

   G           A             D/F#            Bm A/C#   
e|------------------------------|------------------------------|
B|--0-0---0---0-2--2--2--2-2----|--2--2----2--3--2-------------|
G|--0-0---0-2---2--2--2-4--2----|--3--3--4----2--2---4---------|
D|--0-0---0--------2--2-2-------|--2--2---------------4---(4)--|
A|---------------0--0-----------|------------2--4--5-5---------|
E|--3--3---------------------2--|----2-------------------------|

         (Strum Like)
   G       D/F#↓                                Bm                 
e|----------------|---------------------------|------------------------|-----------------------|
B|--0-0--0---0-2--|---------------------------|------------------------|-----------------------|
G|--0-0--0-2---3--|---------------------------|-----------4---4p2------|-----------4---4p2-----|
D|--0-0--------2--|--------3/4--2-------------|-----0--4------------4--|-----0--4-----------4--|
A|----------------|--1--4----------4/5\4/5p2--|--2----------2----------|--0----------0---------|
E|--3-3--------2--|---------------------------|------------------------|-----------------------| 

                     (Strum Like)
   Em                A7    ↓                   Bm                       D
e|----------------|---------------------------|------------------------|-----------------------|
B|-----------0----|--------2--3--0--2---------|------------------------|-----------3---3p2-----|
G|--------0-------|--------0-----------2--4---|-----------4---4p2------|--------2-----------2--|
D|--2--h4---------|--(0)---2------------------|-----0--4------------4--|-----4-----------------|
A|----------------|-----0---------------------|--2----------2----------|--5----------5---------|
E|--0-------------|---------------------------|------------------------|-----------------------|

               (Strum Like)
   Em           D/F#↓                                                   
e|----------------|------------2p0--------------|
B|----------0-----|--2------2-------2/3\2/3~p0--|
G|-------0--------|--3---3----------------------|
D|--2/4-----------|--2--------------------------|
A|----------------|-----------------------------|
E|--0-------------|--2--------------------------|

[Outro]                          
                                  (Strum Like)
   Bm                                   ↓
e|------------------------|-------------7------|
B|------------------------|-------------7------|
G|-----------4---4p2------|-------------7------|
D|-----0--4------------4--|-----0--4/9~--------|
A|--2----------2----------|--2-----------------|
E|------------------------|--------------------|
 

************************************

| p    Pull-off
| h    Hammer-on
| (n)  Ghost note
| /    Slide up
| x    Dead note
| \    Slide down
| ~    Vibrato
 

************************************

            
            
Suggest correction
Creating personal tab
Creating personal tab
You can edit any tab online and save it as your Personal.

You can edit, replace or remove any tab part or add personal notes – all changes will be seen only by you.

Personal tabs can be accessed anytime from any device, even offline.
Learn more »
comments
print report bad tab
2 comments total.
0 reply
oromis995 12 Feb 15, 2017 07:51 AM

Last note of intro is an open b chord, not an openg chord.

0 reply
Justoin 54 Feb 15, 2017 12:37 PM

Changed it, thanks.

guest
You may want to rate the tab now too:
select rating
Wanna post a correction for this tab? Suggest correction