Oops, an error
Loading. Please wait.

La La Land - City Of Stars tab

version 9
version 9

Whole song

  • The fingerstyle Tab i arranged for my youtube chan... Show more
  • This is a really accurate tab from the La La Land ... Show more
  • In the original key, follows piano line pretty exa... Show more
  • This specific tab is based off this cover (https:/... Show more
  • This version was made by Kangho Lee.

Interactive

16,615 views 288 this week
no commentswrite comment
1 2 3 4 5
x 4
add to favorites
×
Save as Personal and add changes to this tab that will be seen only by you. Learn more ›
×
You can save this tab as Personal to edit and correct it or add notes. All changes will be seen only by you. Learn more »
launch autoscroll
font size
0
reset
how to read this tab
guitar tuner
edit
Autoscroll
slow
fast
+/-
esc
set tempo
stop
About this tab version
This version was made by Kangho Lee. Was this info helpful? Yes No
All credit to: https://www.youtube.com/watch?v=mpLNgage3JM. It's also a tutorial. Original author 
is Kangho Lee.
 

[Intro] 
e|-----------------------------------------------------------------------------------------------------------|
B|-----------------------------------------------------------------------------------------------------------|
G|-----------0---0----------------0---0----------------0---0----------------0---0----------------------------|
D|---------0-------3-0----------0-------3-0----------0-------3-0----------0-------3-0------------------------|
A|-------1--------------------1--------------------1--------------------1------------------------------------|
E|-----3--------------------3--------------------3--------------------3--------------------------------------|

[Verse] 
e|------------------------------0-1---0----------------------------------------------------------------------|
B|-----------3------------------1---3---1-3------------3---3-1--------------3---3-1--------------------------|
G|-----0-2-3-0---0------------0------------------2---2---------2----------2---------2------------------------|
D|---------0-------3-0---------------------------0-3------------------0-3------------------------------------|
A|-------1------------------3--------------------------------------------------------------------------------|
E|-----3-----------------------------------------------------------------------------------------------------|

e|------------------------------0-1---0----------------------------------------------------3-----------------|
B|-----------3------------------1---3---1-3-------------------------------1-----1---5-------------3----------|
G|-----0-2-3-0---0------------0------------------2---0-2-----3-2--------2---2---------------------3----------|
D|---------0-------3-0---------------------------3-----2--------------1-------------------------5------------|
A|-------1------------------3--------------------------------------------------------------------------------|
E|-----3-----------------------------------------------------------------------------------3-----------------|

e|-----0------5-3----1--------------------------------------------------------10-----------------------------|
B|-----2----2---------------3-----3---3-1--------------3---3-1--------8-10-11------8-------------------------|
G|-----0------------------------2---------2----------2---------2---------------------10----------------------|
D|--------------------------0-3--------------------3------------------10----------------7--------------------|
A|-----0-----------------------------------------3-----------------------------------------------------------|
E|-----------------------------------------------------------------------------------------------------------|

e|-----------12-13----12--------------------10---10---------------------10---10-----------------10-----------|
B|-----------------15----13-15-----10-------10------10------------------10------10------8-10-11------8-------|
G|--------12-----------------------------10------------10------------10--------------------------------10-7--|
D|------------------------------------12--------------------------12-----------------------------------------|
A|-----15-------------------------------------------------------------------------------10-------------------|
E|---------------------------------10--------------------------10--------------------------------------------|

e|-----------12-13----13----------5------3--5---6---5-------------------------5--------6---------------------|
B|-----------------15----13-------------------------------------------3----------------------3------3--------|
G|--------12---------------------------5--------------------------5-------5------------------3---------3-----|
D|--------------------------------3---------2-----------------0----------------------------5-----------------|
A|-----15----------------------------------------------------------------------------------------------------|
E|-----------------------------------------------------------------------------------------------------------|

e|---------8-10-8-10-8-10---------5------5------5-------------------------1---5--------3------------3--------|
B|---------8--------------------------------------------------------1----------------------------------3-----|
G|-------9-----------------------------5------5-------------------2---2--------------------------------3-----|
D|--------------------------------3---------2-------2---------1--------------------------------5-------------|
A|-----------------------------------------------------------------------------------------------------------|
E|-----8----------------------------------------------------------------------------------3------------------|

e|-----0---------5------------------------------------------------------------0----------------0-------0-----|
B|-----2----2---------------------------------2---------------3--3--3--1--3----------------1---------3-------|
G|-----0------------------------------------------------------3-----3--------------------0---------0---------|
D|------------------------------------------------------------3-----3----------------------------------------|
A|--------------------------------------------X---------------1--X--1-----X------------3---X---------X-------|
E|-----0-----------------------------------------------------------------------------------------------------|


e|---------0---0---0-1----------1-0-0--------------------------0--------------0---0--------------------------|
B|---------2-----3--------------------3-3-1------3---3---3-1-3------------1-----3----------------------------|
G|-------0---------------------------------------3-------3--------------0-----------2------------------------|
D|--------------------------0-----2---3---X------3-------3---------------------------------------------------|
A|-----0---X---0---X--------------X--------------1---X---3---X--------3---X---3---X--------------------------|
E|-----------------------------------------------------------------------------------------------------------|


e|---------1-----1---3----------3-1-----1-1--------------------0--------------0-----0------------------------|
B|---------5-----5---1----------1-1-----1-1------3---3---3-1-3------------1-------3--------------------------|
G|-------2--------------------2------------------3-------3--------------0-------0----------------------------|
D|-----0------0-------------0--------------------3-------3---------------------------------------------------|
A|---------X----------------------X-------X------1---X---1---X--------3---X---3---X--------------------------|
E|-----------------------------------------------------------------------------------------------------------|


e|---------0---0---0-1----------1-0-0--------------------------0--------------0------------------------------|
B|---------2-----3--------------------3-3-1------3---3---3-1-3--------------2---2----------------------------|
G|-------0---------------------------------------3-------3----------------0-------0--------------------------|
D|--------------------------0-----2---3----------3-------3--------------2-----------2------------------------|
A|-----0---X-------X--------------X-------X------1---X---1---X--------0---------------0----------------------|
E|-----------------------------------------------------------------------------------------------------------|

[Outro] 
e|--------------------------5--------3----1------------------------------------------------------------------|
B|-----------------------------------------------3-----3---3-1--------------3--------------------------------|
G|-----------2----2----------------------------------2---------2----------2----------------------------------|
D|-----------------------------------------------0-3------------------0-3------------------------------------|
A|-----------------------------------------------------------------------------------------------------------|
E|-----------------------------------------------------------------------------------------------------------|

************************************

| X   Dead note

************************************

            
            
Suggest correction
Creating personal tab
Creating personal tab
You can edit any tab online and save it as your Personal.

You can edit, replace or remove any tab part or add personal notes – all changes will be seen only by you.

Personal tabs can be accessed anytime from any device, even offline.
Learn more »
comments
print report bad tab
guest
You may want to rate the tab now too:
select rating
Wanna post a correction for this tab? Suggest correction