Oops, an error
Loading. Please wait.

Love - Main Theme bass

58 views 1 this week
no commentswrite comment
1 2 3 4 5
3 more votes to show rating
add to favorites
×
Save as Personal and add changes to this tab that will be seen only by you. Learn more ›
×
You can save this tab as Personal to edit and correct it or add notes. All changes will be seen only by you. Learn more »
launch autoscroll
font size
0
reset
guitar tuner
edit
Autoscroll
slow
fast
+/-
esc
set tempo
stop
Author
Difficulty
About this tab version
This is the theme song to the Netflix original Love, the song is brief but very well thought out, and while Lyle extended the song in "Long Love", the main bass part above is pretty much the basis of the song, with techno sounding vibes in between. Hope y'all enjoy. Was this info helpful? Yes No
[Main riff]
G|-------------------------------------|
D|-------------------------------------| (Play x2)
A|----6666---4------------------------4|
E|---------------6666---46666--44--446-|
 

G|------------------------|----------------------------|
D|-----11----13-----------|----------------------------| 
A|------------------------|---13/16-----18--16--13-----|
E|------------------------|---------16--------------16-|



************************************

| /  Slide up

************************************

            
            
Suggest correction
Creating personal tab
Creating personal tab
You can edit any tab online and save it as your Personal.

You can edit, replace or remove any tab part or add personal notes – all changes will be seen only by you.

Personal tabs can be accessed anytime from any device, even offline.
Learn more »
Give kudos to tab author, rate the tab!
1 2 3 4 5
comments
print report bad tab
guest
You may want to rate the tab now too:
select rating
Wanna post a correction for this tab? Suggest correction