Oops, an error
Loading. Please wait.

Other World Final Fantasy X Ost tab

9,994 views 6 this week
7 commentsread comments
1 2 3 4 5
x 6
add to favorites
×
Save as Personal and add changes to this tab that will be seen only by you. Learn more ›
×
You can save this tab as Personal to edit and correct it or add notes. All changes will be seen only by you. Learn more »
launch autoscroll
font size
0
reset
how to read this tab
guitar tuner
edit
Autoscroll
slow
fast
+/-
esc
set tempo
stop
Full Credit to Toshiro for this tab! I just figured I would re-submit it so that it
can get the full recognition that this great song diserves. This song is from Final
Fantasy X, it is played in the first high quality CG sequence and is the best and
heaviest song in the final fantasy series. I play this song alot! Get the song
however you choose you'll be glad you did if you are into metal!


Tuning:

Db-Ab-Db-Gb-Bb-Eb


[Intro]

Eb|-------------------------------------------------------------|
Bb|------15-------------10-------------15-----------------------|
Gb|------17b(19)--------12b(14)--------17b(19)------------------|
Db|-0-0------------0-0------------0-0------------6\5-6\5-6\5-3--|
Ab|-0-0------------0-0------------0-0------------6\5-6\5-6\5-3--|
Db|-0-0------------0-0------------0-0------------6\5-6\5-6\5-3--|(x2)


[Rhythm Figure 1]
 
Eb|-------------------------------|------------------------------|
Bb|-------------------------------|------------------------------|
Gb|-------------------------------|------------------------------|
Db|-0-0-3\2-0-0-5\3-0-0-7--6\5--3-|-0-0-3\2-0-0-5\3-0-0-7--6-3---|
Ab|-0-0-3\2-0-0-5\3-0-0-7--6\5--3-|-0-0-3\2-0-0-5\3-0-0-7--6-3---|
Db|-0-0-3\2-0-0-5\3-0-0-7--6\5--3-|-0-0-3\2-0-0-5\3-0-0-7--6-3---|(x2)
  pm. .     . .     . .             . .     . .     . .      |
                                                On repeat, this chord is
                                                a fermata.


[Verse]

Eb|-------------------------------|------------------------------|
Bb|-------------------------------|------------------------------|
Gb|-------------------------------|------------------------------|
Db|-0-0-3\2-0-0-5\3-0-0-7--6\5--3-|-0-0-3\2-0-0-5\3-0-0-7--6-3---|
Ab|-0-0-3\2-0-0-5\3-0-0-7--6\5--3-|-0-0-3\2-0-0-5\3-0-0-7--6-3---|
Db|-0-0-3\2-0-0-5\3-0-0-7--6\5--3-|-0-0-3\2-0-0-5\3-0-0-7--6-3---|(x2)
  pm. .     . .     . .             . .     . .     . .


[Rhythm Figure 2]
 
Eb|---10--10--14--14--14----|
Bb|---9---9---13--13--13----|
Gb|---8---8---12--12--12----|
Db|-------------------------|
Ab|-------------------------|
Db|-------------------------|(x4)


[Rhythm Fill]

Eb|--------------|
Bb|--------------|
Gb|--------------|
Db|-0-2-3-5-6-8--|
Ab|-0-2-3-5-6-8--|
Db|-0-2-3-5-6-8--|
pm. . . . . .


[Verse]

Eb|-------------------------------|------------------------------|
Bb|-------------------------------|------------------------------|
Gb|-------------------------------|------------------------------|
Db|-0-0-3\2-0-0-5\3-0-0-7--6\5--3-|-0-0-3\2-0-0-5\3-0-0-7--6-3---|
Ab|-0-0-3\2-0-0-5\3-0-0-7--6\5--3-|-0-0-3\2-0-0-5\3-0-0-7--6-3---|
Db|-0-0-3\2-0-0-5\3-0-0-7--6\5--3-|-0-0-3\2-0-0-5\3-0-0-7--6-3---|(x2)
  pm. .     . .     . .             . .     . .     . .


[Interlude]

Eb|-----------------|-----------------|-----------------|----------------|
Bb|---------3-------|---------3-------|---------3-------|---------3------|
Gb|-----2-------2---|-----3-------3---|-----2-------2---|-----1-----1v---|
Db|-0-0---0---0---0-|-0-0---0---0---0-|-0-0---0---0---0-|-0-0---0--------|
Ab|-----------------|-----------------|-----------------|----------------|
Db|-----------------|-----------------|-----------------|----------------|
  pm. . . . . . . .   . . . . . . . .   . . . . . . . .   . . . . .

Eb|-----------------|-----------------|-----------------|----------------|
Bb|---------3-------|---------3-------|---------3-------|---------3------|
Gb|-----2-------2---|-----3-------3---|-----4-------4---|-----3-----3v---|
Db|-0-0---0---0---0-|-0-0---0---0---0-|-0-0---0---0---0-|-0-0---0--------|
Ab|-----------------|-----------------|-----------------|----------------|
Db|-----------------|-----------------|-----------------|----------------|
  pm. . . . . . . .   . . . . . . . .   . . . . . . . .   . . . . .


[Rhythm Figure 3]

Eb|----------------------------|
Bb|----------------------------|
Gb|----------------------------|
Db|-0--3--0-5--0-3--0-5--0-3---|
Ab|-0--3--0-5--0-3--0-5--0-3---|
Db|-0--3--0-5--0-3--0-5--0-3---|(x2)
  pm      .    .    .    .


[Solo]

(don't know if it's 100% correct, but it's how I play it, and it owns)
Eb|---------------------------------------------------------------------|
Bb|-15------w-w-w-w-w---------------------------------------------------|
Gb|-17b(19)-w-w-w-w-w--17p14h17p14h17p14h17p14h17p14-13b(14)------------|
Db|----------------------------------------------------------17p15------|
Ab|----------------------------------------------------------------17v\-|
Db|---------------------------------------------------------------------|

Eb|------------------------------------------------|
Bb|-----------------------------1---1--1-----------|
Gb|---------------------0-2-0---1---1--1--4p2-4-w--|
Db|-----0-----0-----0-3-------3---------------5-w--|
Ab|---------3-----3--------------------------------|
Db|-0-0--------------------------------------------|
  pm. .

Eb|-x-x-3-x-x-5-x-x-7-5-7-10---7---5-12=10=7=12=10=7=12=10=7=12=10=7=12=10=7-|
Bb|-x-x---x-x---x-x----------------------------------------------------------|
Gb|-x-x---x-x---x-x----------------------------------------------------------|
Db|--------------------------------------------------------------------------|
Ab|--------------------------------------------------------------------------|
Db|--------------------------------------------------------------------------|

Eb|-13-13\-15-15\-17-17\-18-18\-20-20\-22---w-w-w-\-|
Bb|-------------------------------------------------|
Gb|-------------------------------------------------|
Db|-------------------------------------------------|
Ab|-------------------------------------------------|
Db|-------------------------------------------------|

Eb|------------------------------------------------|
Bb|------------------------------------------------|
Gb|------------------------------------------------|
Db|-0---3---5---6---7--10--12---10---7---6---5--3--|
Ab|-0---3---5---6---7--10--12---10---7---6---5--3--|
Db|-0---3---5---6---7--10--12---10---7---6---5--3--|

Eb|------------------------------------------------|
Bb|------------------------------------------------|
Gb|------------------------------------------------|
Db|-0---3---5---6---7--10--12---10---7---6---5--3--|
Ab|-0---3---5---6---7--10--12---10---7---6---5--3--|
Db|-0---3---5---6---7--10--12---10---7---6---5--3--|

Eb|-----------------|-----------------------|
Bb|-----------------|-----------------------|
Gb|-----------------|-----------------------|
Db|-0---w--w--w--w--|-12--w--w--w--w--w--w--|
Ab|-0---w--w--w--w--|-12--w--w--w--w--w--w--|
Db|-0---w--w--w--w--|-12--w--w--w--w--w--w--|

Eb|-----------------------------------------------------|
Bb|-9-7-0-9-7-0-9-7-0-9-7-0-10-8-0-10-8-0-10-8-0-10-8-0-|
Gb|-----------------------------------------------------|
Db|-----------------------------------------------------|
Ab|-----------------------------------------------------|
Db|-----------------------------------------------------|

Eb|--------------------------------|
Bb|-12/=/=/=/=/=/=/=/=20=b=(22)=\--|
Gb|--------------------------------|
Db|--------------------------------|
Ab|--------------------------------|
Db|--------------------------------|

The song just simply fades out, so this is how I end it after the last verse.


[Verse]

Eb|-------------------------------|------------------------------|
Bb|-------------------------------|------------------------------|
Gb|-------------------------------|------------------------------|
Db|-0-0-3\2-0-0-5\3-0-0-7--6\5--3-|-0-0-3\2-0-0-5\3-0-0-7--6-3---|
Ab|-0-0-3\2-0-0-5\3-0-0-7--6\5--3-|-0-0-3\2-0-0-5\3-0-0-7--6-3---|
Db|-0-0-3\2-0-0-5\3-0-0-7--6\5--3-|-0-0-3\2-0-0-5\3-0-0-7--6-3---|(x4)
  pm. .     . .     . .             . .     . .     . .      |
                                           On 4th time, fermata this chord.


[Ending]

Eb|----------------|
Bb|----------------|
Gb|----------------|
Db|-(3)--/(12)\-0--|
Ab|-(3)--/(12)\-0--|
Db|-(3)--/(12)\-0--|



************************************

| =   Tremolo Picking
| /   Slide Up
| \   Slide Down
| (0) Tied Note
| pm  Palm Muting
| b   Bend
| w   Whammy Bar
| x   Muted Note
| h   Hammer On
| p   Pull Off
| v   Vibrato

************************************

            
            
Suggest correction
Creating personal tab
Creating personal tab
You can edit any tab online and save it as your Personal.

You can edit, replace or remove any tab part or add personal notes – all changes will be seen only by you.

Personal tabs can be accessed anytime from any device, even offline.
Learn more »
comments
print report bad tab
7 comments total. Showing first comments.
0 reply
zxc321 10 Dec 14, 2005 05:21 AM

because

0 reply
(jokeman) 10 Dec 27, 2005 02:10 AM

sucks

+1 reply
avensus 10 Sep 08, 2006 07:58 PM

This wasn't a Rammstein song.

guest
You may want to rate the tab now too:
select rating
Wanna post a correction for this tab? Suggest correction