Oops, an error
Loading. Please wait.

Pirates Of The Caribbean - Davy Jones Theme tab

version 1
version 1

Whole song

Interactive

41,922 views 147 this week
2 commentsread comments
1 2 3 4 5
x 18
add to favorites
×
Save as Personal and add changes to this tab that will be seen only by you. Learn more ›
×
You can save this tab as Personal to edit and correct it or add notes. All changes will be seen only by you. Learn more »
launch autoscroll
font size
0
reset
how to read this tab
guitar tuner
edit
Autoscroll
slow
fast
+/-
esc
set tempo
stop
Author
Difficulty
---------------------------------------------------------------------------
                             Hans Zimmer – Davy Jones
---------------------------------------------------------------------------
Tabbed by: DaniNani     

Tuning: Standard

Repeat: 2x
e|------------------------------------------------------------------------|
B|----------------1--------------1--3---------------1---------------------|
G|----------0--2--0--3--2--2--3--0--0-3-2--0--2---3--0--2-----0--3--2-----|
D|-0--2--3--0--0-----0--0--0--0-------0-0--0--0---0-----0--3--0--0--0--3--|
A|-0--0--0------------------------------------------------0-----------0---|
E|------------------------------------------------------------------------|

e|------------------------------------------------------------------------|
B|------------------------------------------------------------------------|
G|------------------------------------------------------------------------|
D|-0--2--------2--0--2--0-------------------------------------------------|
A|-0--0--3--0--0--0--0--0-------------------------------------------------|
E|-------0--0-------------------------------------------------------------|

            
            
Suggest correction
Creating personal tab
Creating personal tab
You can edit any tab online and save it as your Personal.

You can edit, replace or remove any tab part or add personal notes – all changes will be seen only by you.

Personal tabs can be accessed anytime from any device, even offline.
Learn more »
comments
print report bad tab
2 comments total.
-1 reply
NinjaBunni 10 Nov 12, 2015 02:51 PM, edited at 07:51 pm

Wonderful! I also find it sounds really lovely without the open strings, so just a single note kinda deal. I also noticed it sounds like a note is missing in the second 1-3-2 segment, if that makes sense. I think there needs to be a note on the 3rd string 3rd fret.
Like this:

--------------
--1--3--------
--0--0--3--2--
--------0--0--
--------------
--------------
:)

0 reply
DaniNani 105 Dec 09, 2015 04:26 AM

Sorry for the late respone, but yeah; I completly agree, sounds better!!
Also, thank yoiu for the kind words! It's been ages since I made this, and I'm glad people still find it usefull :D

guest
You may want to rate the tab now too:
select rating
Wanna post a correction for this tab? Suggest correction