Oops, an error
Loading. Please wait.

Power Rangers Turbo Theme tab

version 1
version 1

Whole song

Interactive

5,666 views 18 this week
1 commentread comment
1 2 3 4 5
2 more votes to show rating
add to favorites
×
Save as Personal and add changes to this tab that will be seen only by you. Learn more ›
×
You can save this tab as Personal to edit and correct it or add notes. All changes will be seen only by you. Learn more »
launch autoscroll
font size
0
reset
how to read this tab
guitar tuner
edit
Autoscroll
slow
fast
+/-
esc
set tempo
stop
 i can't quite pick out the solo or guitar II for the solo sorry
leave comments and help me out my fellow rangers. can anyone tell me who the 
artist is for this song?i think its jim cushinery???

  start off with a pick slide for the car effects

 intro
E|------------------|
B|---9--7--6--------|
G|---9--7--6--------|
D|------------7--9--|(x3)
A|------------7--9--|
E|------------------|


 "gooooooo"
E|------------|
B|--6----8----|
G|--6----8----|
D|--4----6----|
A|------------|
E|------------|

chorus 1

E|---------------------------------|
B|---------------------------------|
G|--9-------7-------6--------------|(x3)
D|--9----9--7----7--6----6--7--9---|
A|--7--7----5--5----4--4----7--9---|
E|---------------------------------|
  
"gooooooo"
E|------------|
B|--6----8----|
G|--6----8----|
D|--4----6----|
A|------------|
E|------------|

E|-----------------------------------------|
B|--8------8-7-----------------------------|
G|----7--------8----8-9-6---9-8-6---6-8~~--|
D|------9--------9--------7-------7--------|
A|-----------------------------------------|
E|-----------------------------------------|

verse
E|------------------|
B|---9--7--6--------|
G|---9--7--6--------|
D|------------7--9--|(x3)
A|------------7--9--|
E|------------------|

chorus 2

E|---------------------------------|
B|---------------------------------|
G|--9-------7-------6--------------|(x3)
D|--9----9--7----7--6----6--7--9---|
A|--7--7----5--5----4--4----7--9---|
E|---------------------------------|

E|---------------------|
B|---------------------|
G|--9-9---7-9--12--9---|
D|--9-9---7-9--12--9---|
A|--7-7---5-7--10--7---|
E|---------------------|

E|-----------------------------------------|
B|--8------8-7-----------------------------|
G|----7--------8----8-9-6---9-8-6---6-8~~--|
D|------9--------9--------7-------7--------|
A|-----------------------------------------|
E|-----------------------------------------|

verse 2

chorus 1
E|---------------------------------|
B|---------------------------------|
G|--9-------7-------6--------------|(x3)
D|--9----9--7----7--6----6--7--9---|
A|--7--7----5--5----4--4----7--9---|
E|---------------------------------|


"gooooooo"
E|------------|
B|--6----8----|
G|--6----8----|
D|--4----6----|
A|------------|
E|------------|


E|-----------------------------------------|
B|--8------8-7-----------------------------|
G|----7--------8----8-9-6---9-8-6---6-8~~--|
D|------9--------9--------7-------7--------|
A|-----------------------------------------|
E|-----------------------------------------|

breakdown/solo

verse 3

chorus 2
chorus 1

outro

"gooooooo"
E|-------|
B|---9---|
G|---9---|
D|---7---|
A|-------|
E|-------|

symbols
~=vibrato


            
            
Suggest correction
Creating personal tab
Creating personal tab
You can edit any tab online and save it as your Personal.

You can edit, replace or remove any tab part or add personal notes – all changes will be seen only by you.

Personal tabs can be accessed anytime from any device, even offline.
Learn more »
Give kudos to tab author, rate the tab!
1 2 3 4 5
comments
print report bad tab
1 comment total.
0 reply
travishayes89 10 Feb 20, 2011 06:12 PM

Some parts seem a bit off, can't quite place my finger on it (may be me...)

But it is Jim Cushinery.

guest
You may want to rate the tab now too:
select rating
Wanna post a correction for this tab? Suggest correction