Oops, an error
Loading. Please wait.

Requiem For A Dream Theme tab

version 1
version 1

Whole song

Interactive

Video

  • Easy to follow, high quality video lesson.
165,058 views 126 this week
no commentswrite comment
1 2 3 4 5
x 9
add to favorites
×
Save as Personal and add changes to this tab that will be seen only by you. Learn more ›
×
You can save this tab as Personal to edit and correct it or add notes. All changes will be seen only by you. Learn more »
launch autoscroll
font size
0
reset
how to read this tab
guitar tuner
edit
Autoscroll
slow
fast
+/-
esc
set tempo
stop
Author
This is is my first guitar tab so bear with me.

[Intro]

e|--------------------------------|
B|--------------------------------|
G|-320----320-----320----5323-----|
D|-----0------0-------0-----------|
A|--------------------------------|
E|--------------------------------|

 (0:14-0:15ish) into the song
e|--------------------------------|
B|--------------------------------|
G|-0-------2---3----0-------------|
D|--------------------------3---1-|
A|--------------------------------|
E|--------------------------------|

 (0:29)
e|-6-6-6-6-6-6-6-6-5-5-5-5-8-8-8-5-|
B|---------------------------------|
G|---------------------------------|
D|---------------------------------|
A|---------------------------------|
E|---------------------------------|

 (0:43)
e|-6-10-6---6-10-6---6-10-6---6-10-6---|
B|--------3--------3--------3--------3-|
G|-------------------------------------|
D|-------------------------------------|
A|-------------------------------------|
E|-------------------------------------|

e|-5-10-5---5-10-5---8-10-8---8-10-8---|
B|--------3--------3--------3--------3-|
G|-------------------------------------|
D|-------------------------------------|
A|-------------------------------------|
E|-------------------------------------|

 (0:57)
e|-63-6363--6363--63-6363636365--6565--6565-|
B|------------------------------------------|
G|------------------------------------------|
D|------------------------------------------|
A|------------------------------------------|
E|------------------------------------------|

e|-65-6565656563--6363--6363--63636363-65-|
B|----------------------------------------|
G|----------------------------------------|
D|----------------------------------------|
A|----------------------------------------|
E|----------------------------------------|


e|-6565--6565--65--65656565--------------|
B|---------------------------------------|
G|---------------------------------------|
D|---------------------------------------|
A|---------------------------------------|
E|---------------------------------------|


[Interesting part]

e|-6655--3--66--6655--3--66--6655--3--33--3555--5666-|
B|---------------------------------------------------|
G|---------------------------------------------------|
D|---------------------------------------------------|
A|---------------------------------------------------|
E|---------------------------------------------------|

e|-6655--3--66--6655--3--33--3555--5666-|      And that's basically it.Have fun.
B|--------------------------------------|      Questions,comments,or corrections?
G|--------------------------------------|      Email me at:chanaberrie@yahoo.com
D|--------------------------------------|
A|--------------------------------------|
E|--------------------------------------|

            
            
Suggest correction
Creating personal tab
Creating personal tab
You can edit any tab online and save it as your Personal.

You can edit, replace or remove any tab part or add personal notes – all changes will be seen only by you.

Personal tabs can be accessed anytime from any device, even offline.
Learn more »
comments
print report bad tab
guest
You may want to rate the tab now too:
select rating
Wanna post a correction for this tab? Suggest correction