Oops, an error
Loading. Please wait.

Sound City - From Can To Cant tab

54,680 views 84 this week
14 commentsread comments
1 2 3 4 5
x 21
add to favorites
×
Save as Personal and add changes to this tab that will be seen only by you. Learn more ›
×
You can save this tab as Personal to edit and correct it or add notes. All changes will be seen only by you. Learn more »
launch autoscroll
font size
0
reset
how to read this tab
guitar tuner
edit
Autoscroll
slow
fast
+/-
esc
set tempo
stop
http://www.soundcitymovie.com
Tabbed by: Eric

 [Intro/Verse 1]
e|---------------------------------------------------|
B|---------------------------------------------------|
G|----2-----2-----2-----2-----2-----2-----2-----2----|
D|------4-----4-----4-----4-----4-----4-----4-----4--|
A|--------------0-----2-----5-----4-----3-----2------|
E|--2-----4------------------------------------------|

 [Pre-chorus] (0:55)
e|--------2-----------0------------------------------|
B|------3---3-------0--------------------------------|
G|----2-------2---1----------------------------------|
D|--0-----------2------------------------------------|
A|---------------------------------------------------|
E|---------------------------------------------------|

 [Chorus] (1:01)
e|---------------------------------2-----------0-----|
B|------2------2-----2-----0-----0---0-------0-------|
G|----2------2-----2-----2-----2-------2---2---------|
D|---------------------------0-----------2-----------|
A|---------------0-----2-----------------------------|
E|--2-----4------------------------------------------|

 [Post-Chorus] (1:22)
  Guitar 1
e|---------------------------------------------------|
B|---------------------------------------------------|
G|----2-----2-----2-----2----------------------------|
D|------4-----4-----4-----4--------------------------|
A|--------------0-----2------------------------------|
E|--2-----4------------------------------------------|

  Guitar 2 comes in at 1:33
e|---------------------------------------------------|
B|--------------7--5--5--4---------------------------|
G|--------------7--6--5--4---------------------------|
D|--4--6--7--9--x--x--x--x---------------------------|
A|--x--x--x--x--5--4--3--2---------------------------|
E|--2--4--5--7---------------------------------------|

 [Verse 2] (1:55)
  Guitar 1 
e|---------------------------------------------------|
B|---------------------------------------------------|
G|----2-----2-----2-----2-----2-----2-----2-----2----|
D|------4-----4-----4-----4-----4-----4-----4-----4--|
A|--------------0-----2-----5-----4-----3-----2------|
E|--2-----4------------------------------------------|

  Guitar 2
e|---------------------------------------------------|
B|--------------7--5--5--4---------------------------|
G|--------------7--6--5--4---------------------------|
D|--4--6--7--9--x--x--x--x---------------------------|
A|--x--x--x--x--5--4--3--2---------------------------|
E|--2--4--5--7---------------------------------------|

 [Pre-chorus] (2:16)
  Guitar 1
e|--------2-----------0------------------------------|
B|------3---3-------0--------------------------------|
G|----2-------2---1----------------------------------|
D|--0-----------2------------------------------------|
A|---------------------------------------------------|
E|---------------------------------------------------|

  Guitar 2
e|---------------------------------------------------|
B|---------------------------------------------------|
G|--7-7-7-7-7-7-9-9-9-9-9-9--------------------------|
D|--7-7-7-7-7-7-9-9-9-9-9-9--------------------------|
A|--5-5-5-5-5-5-7-7-7-7-7-7--------------------------|
E|---------------------------------------------------|

 [Chorus] (2:21)
  Guitar 1
e|---------------------------------2-----------0-----|
B|------2------2-----2-----0-----0---0-------0-------|
G|----2------2-----2-----2-----2-------2---2---------|
D|---------------------------0-----------2-----------|
A|---------------0-----2-----------------------------|
E|--2-----4------------------------------------------|

  Guitar 2
e|---------------------------------------------------|
B|---------------------------------------------------|
G|--11-10-9--8--7--(7)--9----------------------------|
D|--x--x--x--x--x--(x)--9----------------------------|
A|--9--8--7--6--5--(5)--7----------------------------|
E|---------------------------------------------------|

 [Post-chorus] (2:43)
e|---------------------------------------------------|
B|---------------------------------------------------|
G|---------------------------------------------------|
D|--4-x-x-x-6-x-x-x-7-x-x-x-9-x-x-x------------------|
A|--4-x-x-x-6-x-x-x-7-x-x-x-9-x-x-x------------------|
E|--2-x-x-x-4-x-x-x-5-x-x-x-7-x-x-x------------------|

 [Solo] (2:54) will figure out later
  Guitar 2
e|---------------------------------------------------|
B|---------------------------------------------------|
G|---------------------------------------------------|
D|--4-x-x-x-6-x-x-x-7-x-x-x-9-x-x-x------------------|
A|--4-x-x-x-6-x-x-x-7-x-x-x-9-x-x-x------------------|
E|--2-x-x-x-4-x-x-x-5-x-x-x-7-x-x-x------------------|

  Guitar 2 (3:04)
e|---------------------------------------------------|
B|--------------7--5--5--4---------------------------|
G|--------------7--6--5--4---------------------------|
D|--4--6--7--9--x--x--x--x---------------------------|
A|--x--x--x--x--5--4--3--2---------------------------|
E|--2--4--5--7---------------------------------------|

 [Pre-Chorus] (3:45)
e|---------------------------------------------------|
B|---------------------------------------------------|
G|--7-7-7-7-7-7-9-9-9-9-9-9--------------------------|
D|--7-7-7-7-7-7-9-9-9-9-9-9--------------------------|
A|--5-5-5-5-5-5-7-7-7-7-7-7--------------------------|
E|---------------------------------------------------|

 [Chorus]
  Guitar 1 (3:50)
e|---------------------------------2-----------0-----|
B|------2------2-----2-----0-----0---0-------0-------|
G|----2------2-----2-----2-----2-------2---2---------|
D|---------------------------0-----------2-----------|
A|---------------0-----2-----------------------------|
E|--2-----4------------------------------------------|

  Guitar 2 (4:01)
e|---------------------------------------------------|
B|---------------------------------------------------|
G|--11-10-9--8--7--(7)--9----------------------------|
D|--x--x--x--x--x--(x)--9----------------------------|
A|--9--8--7--6--5--(5)--7----------------------------|
E|---------------------------------------------------|

 [Outro] (4:23)
  Guitar 1
e|---------------------------------------------------|
B|---------------------------------------------------|
G|----2-----2-----2-----2-----2-----2-----2-----2----|
D|------4-----4-----4-----4-----4-----4-----4-----4--|
A|--------------0-----2-----5-----4-----3-----2------|
E|--2-----4------------------------------------------|

  Guitar 2
e|---------------------------------------------------|
B|--------------7--5--5--4---------------------------|
G|--------------7--6--5--4---------------------------|
D|--4--6--7--9--x--x--x--x---------------------------|
A|--x--x--x--x--5--4--3--2---------------------------|
E|--2--4--5--7---------------------------------------|

            
            
Suggest correction
Creating personal tab
Creating personal tab
You can edit any tab online and save it as your Personal.

You can edit, replace or remove any tab part or add personal notes – all changes will be seen only by you.

Personal tabs can be accessed anytime from any device, even offline.
Learn more »
comments
print report bad tab
14 comments total. Showing first comments.
0 reply
ArcticFighters 293 Mar 08, 2013 05:59 PM

Excellent Tab keep it up!

0 reply
DMOB1996 283 Mar 09, 2013 08:14 PM

Bad ass tab! 5/5 :)

+1 reply
Strat-Cat 31 Mar 10, 2013 04:00 PM

Here is a bit of a start for the solo (not perfect) to help you finish this sweet tab.

e|------------------------------------------------------------------17--|
B|4b-2-------(x4) 4-4b-( a few times)-then /-17-171717-17-(x3)191919--19
G|4b-2-4p2--------4-4b----------------------18---------18-----181818--18|
D|--------4-------------------------------------------------------------|
A|----------------------------------------------------------------------|
E|----------------------------------------------------------------------|

The last part before the chorus i can't figure out yet good luck putting it all together

guest
Wanna post a correction for this tab? Suggest correction