Oops, an error
Loading. Please wait.

The Great Escape Theme tab

version 1
version 1

Whole song

6,482 views 6 this week
2 commentsread comments
1 2 3 4 5
x 5
add to favorites
×
Save as Personal and add changes to this tab that will be seen only by you. Learn more ›
×
You can save this tab as Personal to edit and correct it or add notes. All changes will be seen only by you. Learn more »
launch autoscroll
font size
0
reset
how to read this tab
guitar tuner
edit
Autoscroll
slow
fast
+/-
esc
set tempo
stop
The Great Escape - Main theme
Tabbed by - Big V
v1nnyy2k@hotmail.com
    
   The bass is a little dodgy but i dont play bass,
any changes? just add 'em.

e|---------------------------------------------------------------------
B|---------------------------------------------------------------------
G|---------------------------------------------------------------------
D|-------7-5------5-5--------------------------7-5------5-5-------5----
A|---8-------8-5-----8-7-8-7-5-3-0---------8-------8-5-----8-7-3---8---
E|-8---8---------------------------5-6-7-8---8-------------------------

Bass:

G|------------
D|------------
A|------------
E|-1-2-1--3-2-

            
            
Suggest correction
Creating personal tab
Creating personal tab
You can edit any tab online and save it as your Personal.

You can edit, replace or remove any tab part or add personal notes – all changes will be seen only by you.

Personal tabs can be accessed anytime from any device, even offline.
Learn more »
comments
print report bad tab
2 comments total.
0 reply
yogurt_overdose 153 Mar 28, 2006 11:40 AM

Bass should be (I think):

G|---------------------|
D|---3----3--7-5-3---3-|
A|-----3-----------3---|
E|---------------------|

0 reply
seanthelegend 60 Jan 23, 2015 09:54 AM

You do know that it is an actual song? Like more than 4 bars long.

guest
Wanna post a correction for this tab? Suggest correction