Oops, an error
Loading. Please wait.

The Hobbit - Misty Mountains Cold tab

version 3
version 3

Whole song

Interactive

13,875 views 18 this week
2 commentsread comments
1 2 3 4 5
x 21
add to favorites
×
Save as Personal and add changes to this tab that will be seen only by you. Learn more ›
×
You can save this tab as Personal to edit and correct it or add notes. All changes will be seen only by you. Learn more »
launch autoscroll
font size
0
reset
how to read this tab
guitar tuner
edit
Autoscroll
slow
fast
+/-
esc
set tempo
stop
Drop D tuning on guitar

  FAR OVER, THE MISTY MOUNTAINS COLD
E|-------------------------|
B|-------------------------|
G|-------------------------|
D|-------------------------|
A|-------------------------|
E|-0-3-5--8h10-12p10-8-7-5-|

  TO DUNGEONS DEEP, AND CAVERNS OLD
E|-------------------------|
B|-------------------------|
G|-------------------------|
D|-------------------------|
A|-------------------------|
E|-0-5-7-7----8-10-8s7-5---|

  THE PINES WERE ROARING,O-O-O-ON THE HEIGHT
E|-------------------------|
B|-------------------------|
G|-------------------------|
D|-------------------------|
A|-------------------------|
E|-0-3-3-5-5--8-10p8-7-3-5-|

  THE WINDS WERE MOANING, I-I-I-IN THE NIGHT
E|-------------------------|
B|-------------------------|
G|-------------------------|
D|-------------------------|
A|-------------------------|
E|-0-3-7-7-7--8-10p8-7-5-7-|

  THE FIRE WAS RED, THE FLAMING SPREAD
E|-------------------------|
B|-------------------------|
G|-------------------------|
D|-------------------------|
A|-------------------------|
E|-8-10-8-12----8-10--5-7--|

  THE TREES LIKE TORCHES, BLAZED WITH LIGHT
E|-------------------------|
B|-------------------------|
G|-------------------------|
D|-------------------------|
A|-------------------------|
E|-0-3-7-8-8---7-3-5-------|

            
            
Suggest correction
Creating personal tab
Creating personal tab
You can edit any tab online and save it as your Personal.

You can edit, replace or remove any tab part or add personal notes – all changes will be seen only by you.

Personal tabs can be accessed anytime from any device, even offline.
Learn more »
comments
print report bad tab
2 comments total.
0 reply
mrsshg 41 May 19, 2013 04:34 AM

Great tab! Only one thing I would recommend:
In the part with 'the fire was red' it should go

-8-10-7-12-

0 reply
eric.giulian 10 Nov 19, 2015 04:45 AM

2 parts of the song after "Caverns Old" are missing:

"We must away, ere break of day"
8-10-7-12---7-10-5-7

"To find our long, forgotten gold"
0-5-7-8---10-8-7-3-5

guest
Wanna post a correction for this tab? Suggest correction