Oops, an error
Loading. Please wait.

Twilight Zone Theme tab

version 1
version 1

Whole song

14,868 views 6 this week
2 commentsread comments
1 2 3 4 5
x 27
add to favorites
×
Save as Personal and add changes to this tab that will be seen only by you. Learn more ›
×
You can save this tab as Personal to edit and correct it or add notes. All changes will be seen only by you. Learn more »
launch autoscroll
font size
0
reset
how to read this tab
guitar tuner
edit
Autoscroll
slow
fast
+/-
esc
set tempo
stop
twilight zone theme.
Tabbed by andrew  freak4207@aol.com.
  
e-3-4-3-0-3-4-3-0-3-4-3-0-3-4-3-0-3-4-3-0-3-4-3-0
B-----------------------------------------------------
G-----------------------------------------------------
D-----------------------------------------------------
A-----------------------------------------------------
E-----------------------------------------------------



THATS THE SONG JUST PLAY IT A FEW TIMES 
:: Ultimate Guitar Archive :: 
http://www.ultimate-guitar.com 


            
            
Suggest correction
Creating personal tab
Creating personal tab
You can edit any tab online and save it as your Personal.

You can edit, replace or remove any tab part or add personal notes – all changes will be seen only by you.

Personal tabs can be accessed anytime from any device, even offline.
Learn more »
comments
print report bad tab
2 comments total.
0 reply
fast-lagardo 10 Nov 12, 2008 08:38 AM

e|-------------0------------0--|
B|--------9------------9-------|
G|-----12---12------12---12----| Then keep repeting
D|-----------------------------|
A|-----------------------------|
E|-----------------------------|


it's the same notes but they all ring out and it adds more depth, plus you don't have to move your hands.

0 reply
TheAwfulWaffle 10 Jun 02, 2009 07:37 PM

lagardo, i think your off by a bit but i does sound kinda rite
also mr freak i think if you transfered the that lower down on the fret board it gives it more of a ting
so
-3-4-3-0------or-------15-16-15-12------

its totally up to u but i kinda like it this way
great tab by the way

guest
Wanna post a correction for this tab? Suggest correction